Song name
# A B C D E F G H I J K L M N O P Q R S T U V W X Y Z

Washya - Sounds tab

-----------------------------------------------------------------------------
                Sounds - Washya
-----------------------------------------------------------------------------
Tuning: Standard (EBGDAE)
Intro
E|--------------------------------------------|
B|--------------------------------------------|
G|-9b-9b-9b-9b-7-9b-7-7-----------------------|
D|----------------------9b-9b-7b-7b-----------|
A|----------------------------------10p9p7----|
E|-----------------------------------------9~-|

Verses
E|--------------------------|
B|-1-1-111------------------|
G|-2-2-222-3h5-5-555------1-|
D|-2-2-222-3h5-5-555-2-22-2-|
A|---------3h3-3-333-2-22-2-|
E|-------------------0-00---|

Chorus
E|-------------------------------------------------|
B|-11111--------------------------/10h12----12~~\\-|
G|-22222--55555-------------11111--------11--------|
D|-22222--55555-55555-22222-22222------------------|
A|--------33333-55555-22222-22222------------------|
E|--------------33333-00000------------------------|

Lead x2
E|--------------------10---------------7-----------------|
B|-/12-12p10----10h12----12-10b-10b----7-----------------|
G|-----------11---------------------/9---9-7-------------|
D|-------------------------------------------10-7--------|
A|------------------------------------------------9-7~\\-|
E|-------------------------------------------------------|
Tap to rate this tab
 
# A B C D E F G H I J K L M N O P Q R S T U V W X Y Z