Song name
# A B C D E F G H I J K L M N O P Q R S T U V W X Y Z

Washya - Member Of Society tab

-----------------------------------------------------------------------------
                  Member Of Society - Washya
-----------------------------------------------------------------------------
Tuning: Standard (EBGDAE)
Intro
E|----------1--------------3----------------------------5-----|
B|------------1--------------3----------------------------5---|
G|--------------2--------------4----------------------------6-|
D|------------------------------------------------------------|
A|-3333---3-------5555---5-------55-55-33--55-55-77---7-------|
E|-1111-1---------3333-3---------33-33-11--33-33-55-5---------|
PM      * *            * *                          * * 

Verses
E|--------------------------|
B|--------------------------|
G|-2----2-2--5--5---7--7--9-|
D|-2----2-3--3--3---5--5--7-|
A|-0-0000000000000000000000-|
E|--------------------------|

Chorus
E|------------------------------------------------------------------|
B|------------------------------------------------------------------|
G|------------------------------------------------------------------|
D|---------------------------2----------------------2-5-2-7---------|
A|-1h2-----2-2-2-2-2-2-2-2-2-0-2--2-2-2-2-2-2-2-2-2-0-3-0-5-1h2-----|
E|-----3p2-0-0-0-0-0-0-0-0-0---0--0-0-0-0-0-0-0-0-0-------------3p2-|
PM         * * * * * * * * *      * * * * * * * * *           

E|----------------------------------------------------------|
B|----------------------------------------------------------|
G|----------------------------------------------------------|
D|---------------3----------------------2---2-5-2-7---------|
A|-1h2-----55555-1-2--2-2-2-2-2-2-2-2-2-0-2-0-3-0-5-1h2-----|
E|-----3p2-33333---0--0-0-0-0-0-0-0-0-0---0-------------3p2-|
PM                    * * * * * * * * *
Tap to rate this tab
# A B C D E F G H I J K L M N O P Q R S T U V W X Y Z