Song name
# A B C D E F G H I J K L M N O P Q R S T U V W X Y Z

Washya - Blown Away tab

-----------------------------------------------------------------------------
                      Blown Away - Washya
-----------------------------------------------------------------------------
Tuning: Drop D (DADGBE)
Intro (nice heavy riff)
E|----------------------------------------------|
B|----------------------------------------------|
G|----------------------------------------------|
D|----------------------------------------------|
A|--------5-4-5-2-4-5--5-4-5-2-4-5--5-4-5-2-4-5-|
D|-//xx\\-5-4-5-2-4-5--5-4-5-2-4-5--5-4-5-2-4-5-|X4

Verses
E|------------------------------|
B|------------------------------|
G|------------------------------|
D|------------------------------|
A|-0-00-0000--0-00-0000-5h7h8\\-|
D|-0-00-0000--0-00-0000-5h7h8\\-|
PM * ** ****  * ** **** 

Chorus
E|----------------------------------------------------------|
B|----------------------------------------------------------|
G|----------------------------------------------------------|
D|----------------------------------------------------------|
A|--------5-4-5-2-4-5-5-4-5-2-4-5/9-8-9-5-7-8-9-8-9-5-7-8\\-|
D|-//xx\\-5-4-5-2-4-5-5-4-5-2-4-5/9-8-9-5-7-8-9-8-9-5-7-8\\-|

Solo
E|------------------------------------------------7------12~~-|
B|-------------------------------------7---7/10-8---8-10------|
G|-----------------------------6---6h8---8--------------------|
D|---------------3---3-5h7-5-7---7----------------------------|
A|-----3---5-3-5---5------------------------------------------|
D|-3-5---5----------------------------------------------------|
PM * * * * * * * * * * *** 

E|-12h14p12----12h14p12----12h14p12-------14h16p14----14h16p14-------15b-15-|
B|----------13----------13----------13/15----------15----------15/17-17b-17-|
G|--------------------------------------------------------------------------|
D|--------------------------------------------------------------------------|
A|--------------------------------------------------------------------------|
D|--------------------------------------------------------------------------|
Tap to rate this tab
# A B C D E F G H I J K L M N O P Q R S T U V W X Y Z