Song name
# A B C D E F G H I J K L M N O P Q R S T U V W X Y Z

Washya - Jumper tab

-----------------------------------------------------------------------------
             Jumper - Washya
-----------------------------------------------------------------------------
Tuning: Standard (EBGDAE)
Intro
E|-------------------------|
B|-------------------------|
G|-------------------------|
D|-------------------------|
A|-------------------------|
E|-0-0-0-0-0-0-0-0-0-0-0-0-|x3

Part 2
E|------------------------------------------|
B|-2-2-------------2-2-------------2----2-2-|
G|-2-2-------------2-2-------------2----2-2-|
D|-1-1-------------1-1-------------1----1-1-|
A|-1-1-------------1-1-------------1----1-1-|
E|-----0-0-0-0-0-0-----0-0-0-0-0-0---33-----|

Part 3 (Verses)
E|----------------------------------------------------------------|
B|-2-2------------2-2------------2-------2-2----------------2-----|
G|-2-2------------2-2------------2-------2-2------------------3---|
D|-1-1------------1-1------------1-------1-1--------------3-------|
A|-1-1-x-x-xx-x-x-1-1-x-x-xx-x-x-1-------1-1-x-x-xx-x-x-1-------1-|
E|-----x-x-xx-x-x-----x-x-xx-x-x---33\22-----x-x-xx-x-x-----------|

Chorus
E|---------------------------------------------------------------------|
B|---------------------------------------------------------------------|
G|--------------------------------------3*-----------------------------|
D|-------2p1---1--------------2p1---1h2----2p1---1h2-------------------|
A|-2-2-2-----3---3-2----2-2-2-----3------------3-----------5---6---356-|
E|-0-0-0-------------1~-0-0-0------------------------3~-00-3-0-4-0-134-|
PM * * *                * * *                           **   *   * 
Tap to rate this tab
# A B C D E F G H I J K L M N O P Q R S T U V W X Y Z