Song name
# A B C D E F G H I J K L M N O P Q R S T U V W X Y Z

Washya - Defend Your Position tab

-----------------------------------------------------------------------------
               Defend Your Position - Washya
-----------------------------------------------------------------------------
Tuning: Drop C (DAFCGC)
Intro
D|---------------------------------------------------------------|
A|---------------------------------------------------------------|
F|---------------------------------------------------------------|
C|---------------------------------------------------------------|
G|-5-55-55-5-5-6-5-3-5--5-55-55-5-5-6-5-3-5--3-33-33-3-3-4-3-1-3-|
C|-5-55-55-5-5-6-5-3-5--5-55-55-5-5-6-5-3-5--3-33-33-3-3-4-3-1-3-|

Part 2
D|-----------------|
A|-----------------|
F|-----------------|
C|-----------------|
G|-111-000-111-000-|
C|-111-000-111-000-|
PM *** *** *** ***   

Verses
D|------------------------------------------|
A|------------------------------------------|
F|------------------------------------------|
C|------------------------------------------|
G|-111-000-111-000-111-000-0-3h5p3h5p3h5~~~-|
C|-111-000-111-000-111-000-0----------------|

Chorus
D|----------------------------------------------------------|
A|----------------------------------------------------------|
F|----------------------------------------------------------|
C|-----------------------5-7-8-7---------3-5-55-------------|
G|-0-5-6-5-0-3-5-0-1-3-0-3-5-6-5-5-6-5-3-1-3-33-3-4-5-4-3-1-|
C|-0-5-6-5-0-3-5-0-1-3-0---------5-6-5-3--------3-4-5-4-3-1-|
Tap to rate this tab
# A B C D E F G H I J K L M N O P Q R S T U V W X Y Z