Song name
# A B C D E F G H I J K L M N O P Q R S T U V W X Y Z

Washya - Dogs tab

-----------------------------------------------------------------------------
                 Dogs Solo - Washya (as played by grinspoon)
-----------------------------------------------------------------------------
Tuning: Drop D (DADGBE)
E|-------------------|
B|-------------------|
G|-------------------|
D|-----3-------3---3-|
A|-3-5---5-3-5---5---|
D|-------------------|

E|-------------------------------|
B|-------------------------------|
G|-------------------------------|
D|-----3---3h5/7\66\6h77\66\44\2-|
A|-3-5---5-----------------------|
D|-------------------------------|

E|----------------------------------|
B|----------------------------------|
G|-------------------5---5-7b-5-5~--|
D|-----3-------3h5/7---7------------|
A|-3-5---5-3-5----------------------|
D|----------------------------------|

E|-----------------------|
B|-7----7----7----7------|
G|-7----7----7----7------|
D|---99---99---99---99~~-|
A|-----------------------|
D|-----------------------|
Tap to rate this tab
# A B C D E F G H I J K L M N O P Q R S T U V W X Y Z