Song name
# A B C D E F G H I J K L M N O P Q R S T U V W X Y Z

Washya - Im Blank tab

-----------------------------------------------------------------------------
                      I'm Blank - Washya
-----------------------------------------------------------------------------
Tuning: Drop D (DADGBE)
Intro
E|----------------------------------------------------------------------|
B|----------------------------------------------------------------------|
G|----------------------------------------------------------------------|
D|----------------------------------------------------------------------|
A|----------------------------------------------------------------------|
D|-33333333\222222222/555555555555\44444444/77777777\666666666/99999999-|
PM ********************************************************************

E|----------------------------------------------------------|
B|----------------------------------------------------------|
G|----------------------------------------------------------|
D|----------------------------------------------------------|
A|----------------------------------------------------------|
D|-888888888\11111111111111\1010101010101010\1313131313h15~-|x2
PM **************************************************** 

Verses
E|----------1-------------------3-------------------------6---------|
B|------------1-------------------3-------------------------6-------|
G|------------------------------------------------------------------|
D|--------3-------------------5---------------------8---8-----8---8-|
A|-00---1-------000222333---3-------555-333-666---6---6---------6---|
D|-00-1---------000222333-3---------555-333-666-6-------------------|
PM **           *********           *** *** *** 

Chorus
E|-----------------------------------------------------------|
B|-----------------------------------------------------------|
G|-----------------------------------------------------------|
D|----------------------------------5555-7777-3333-----------|
A|-0-3-5-6-5-3-1-0--0-3-5-6-5-3-1-3-3333-5555-1111-33-55-6\\-|
D|-0-3-5-6-5-3-1-0--0-3-5-6-5-3-1-3----------------33-55-6\\-|
Tap to rate this tab
# A B C D E F G H I J K L M N O P Q R S T U V W X Y Z