Song name
# A B C D E F G H I J K L M N O P Q R S T U V W X Y Z

Washya - Look Whos Talking tab

-----------------------------------------------------------------------------
                        Look Who's Talking - Washya
-----------------------------------------------------------------------------
Tuning: Standard (EBGDAE)
Intro
E|-----------------------------------------------|
B|-----------------------------------------------|
G|-----------------------------------------------|
D|-----------------------------------------------|
A|-----------------------------------------------|
E|-0-0-3-0-0-5-0-0-3-0-0-5-0-3-0-0-5-0-0-1-0-0-3-|
PM * * * * * * * * * * * * * * * * * * * * * * *  

Verses
E|------------------------------------------------------------|
B|------------------------------------------------------------|
G|------------------------------------------------------------|
D|------------------------------------------------------------|
A|----------------------------------------------------875-543-|
E|-336335336335336335336335336335336335336335336335-33653-321-|
PM ************************************************ ** 

Chorus
E|-5-5-5-5-3-3-3-3-0-0-0-0-0-0-0-0-0-2-3-7/8--7/8--5-|
B|-5-5-5-5-3-3-3-3-1-1-1-1-2-2-2-2-0-2-3-8/9--8/9--5-|
G|-7-7-7-7-5-5-5-5-0-0-0-0-2-2-2-2-0-3-4-9/10-9/10-6-|
D|-7-7-7-7-5-5-5-5-2-2-2-2-2-2-2-2-2-4-5-9/10-9/10-7-|
A|-5-5-5-5-3-3-3-3-3-3-3-3-0-0-0-0-2-4-5-7/8--7/8--7-|
E|-5-5-5-5-3-3-3-3-0-0-0-0-0-0-0-0-0-2-3-----------5-|
Tap to rate this tab
# A B C D E F G H I J K L M N O P Q R S T U V W X Y Z