Song name
# A B C D E F G H I J K L M N O P Q R S T U V W X Y Z

Washya - Intimidation tab

-----------------------------------------------------------------------------
           Intimidation - washya
-----------------------------------------------------------------------------
Tuning: Drop D (DADGBE)
Intro
E|---------------------------------------------------|
B|---------------------------------------------------|
G|---------------------------------------------------|
D|--------------------5/6/7--------------------------|
A|---5---3---6p5*-----3/4/5---3---1---4p3*-----1/2/3-|
D|-0---0---0------0-3-------0---0---0------0-1-1/2/3-|

Part 2
E|-----------------------|
B|-----------------------|
G|-------------7---3---5-|
D|-------------7---3---5-|
A|-0-0-0-0-0-0-5---1---3-|
D|-0-0-0-0-0-0---0---0---|
PM * * * * * *  

Verses
E|------------------------------------------------------------------|
B|------------------------------------------------------------------|
G|--------------------------------------------------------3---7---5-|
D|--------------------------------------------------------3---7---5-|
A|-5-3-5---55-3-5-6-5-3-5-3---7-5-7---77-5-7-88-7-5-7-5---1---5---3-|
D|-------0------------------0-------0-------------------0---0---0---|
PM * * * * ** * * * * * * * * * * * * ** * * ** * * * * *   *   *   

Chorus
E|-------------------------------------------------------------|
B|-------------------------------------------------------------|
G|-7/10-----5/8-8/11---------------4\3-----6/7-------9---7---5-|
D|---------------------------------------------------9---7---5-|
A|-5/8--8\7-3/6-6/9-9\8-5h7-3-3333-2\1-1/2-4/5-6\5\3-7---5---3-|
D|------8\7---------9\8-5h7-3-3333-----1/2-----6\5\3---0---0---|
PM                            **** 
Tap to rate this tab
# A B C D E F G H I J K L M N O P Q R S T U V W X Y Z