Song name
# A B C D E F G H I J K L M N O P Q R S T U V W X Y Z

Washya - Noted Passenger tab

-----------------------------------------------------------------------------
                          Noted Passenger - Washya
-----------------------------------------------------------------------------
Tuning: Standard (EBGDAE)
Intro
E|-----------------------------------------------------------|
B|-----------------------------------------------------------|
G|-5-55---7-77-----------------7-77---9-99-------------------|
D|-5-55---7-77---5-55---3-33---7-77---9-99---7-77---5-55---2-|
A|-3-33-x-5-55-x-5-55-x-3-33-x-5-55-x-7-77-x-7-77-x-5-55-x-2-|
E|------x------x-3-33-x-1-11-x------x------x-5-55-x-3-33-x-0-|x2

Verses
E|------------------------------------------------------|
B|------------------------------------------------------|
G|------7----7-7~-77-77---------------------------------|
D|------7----7-7~-77-77----5----5-5~-55-55----3/5-3/5-2-|
A|-x-xx-5-xx-5-5~-55-55-xx-5-xx-5-5~-55-55-xx-3/5-3/5-2-|
E|-x-xx---xx------------xx-3-xx-3-3~-33-33-xx-1/3-1/3-0-|

Chorus
E|-----------------------------------------------------------------|
B|-----------------------------------------------------------------|
G|-77777777----------------------77777777-----------------------8\-|
D|-77777777-55555555-333-555-666-77777777-5555-444-3-222222-555-8\-|
A|-55555555-55555555-333-555-666-55555555-5555-444-3-222222-555-6\-|
E|----------33333333-111-333-444----------3333-222-1-000000-333----|
Tap to rate this tab
 
# A B C D E F G H I J K L M N O P Q R S T U V W X Y Z