Song name
# A B C D E F G H I J K L M N O P Q R S T U V W X Y Z

Washya - Switcher tab

-----------------------------------------------------------------------------
                            Switcher - Washya
-----------------------------------------------------------------------------
Tuning: Drop C (DAFCGC)
Intro
D|------------------------------|
A|------------------------------|
F|------------------------------|
C|---------------------12-------|
G|------------13p12-------14b~~-|
C|-1b~-/12h14-------14----------|x2

Main Riff 
D|-------------------------------------|
A|-------------------------------------|
F|-------------------------------------|
C|-------------------------------------|
G|-0-0-0-0-0-0-0-0-0-0-5-3-5-3-0-3-6\\-|
C|-0-0-0-0-0-0-0-0-0-0-5-3-5-3-0-3-6\\-|
PM * * * * * * * * * * 

Verses
D|----------------------|
A|----------------------|
F|----------------------|
C|----------55-77-------|
G|-00-88-55-33-55-88-55-|
C|-00-88-55-------88-55-|

Chorus
D|---------333--------------------------|
A|-----2---333-22-2---------------------|
F|---3---3-----22-2---------------------|
C|-4-----------22-2-------------555-333-|
G|-------------00-0-333-555-111-333-111-|
C|------------------333-555-111---------|
PM                  *** *** *** 


Main Riff 
D|-------------------------------------|
A|-------------------------------------|
F|-------------------------------------|
C|-------------------------------------|
G|-0-0-0-0-0-0-0-0-0-0-5-3-5-3-0-3-6\\-|
C|-0-0-0-0-0-0-0-0-0-0-5-3-5-3-0-3-6\\-|
PM * * * * * * * * * * 

Guitar Solo
D|-15b----14h17p14----------14h12h14p12h14p12----------------------------17-|
A|-17b-17----------17p14h17-------------------14h17p14----14h17p14h17p14----|
F|-----------------------------------------------------15-------------------|
C|--------------------------------------------------------------------------|
G|--------------------------------------------------------------------------|
C|--------------------------------------------------------------------------|

D|-17h18p17p15-------18p15h18p15h18p15----------------18p17b-17b-17b~~-|
A|-------------18p15-------------------18p15p14-17h19----19b-19b-19b~~-|
F|---------------------------------------------------------------------|
C|---------------------------------------------------------------------|
G|---------------------------------------------------------------------|
C|---------------------------------------------------------------------|

Main Riff 
D|-------------------------------------|
A|-------------------------------------|
F|-------------------------------------|
C|-------------------------------------|
G|-0-0-0-0-0-0-0-0-0-0-5-3-5-3-0-3-6\\-|
C|-0-0-0-0-0-0-0-0-0-0-5-3-5-3-0-3-6\\-|
PM * * * * * * * * * * 

Verses
D|----------------------|
A|----------------------|
F|----------------------|
C|----------55-77-------|
G|-00-88-55-33-55-88-55-|
C|-00-88-55-------88-55-|

Chorus
D|---------333--------------------------|
A|-----2---333-22-2---------------------|
F|---3---3-----22-2---------------------|
C|-4-----------22-2-------------555-333-|
G|-------------00-0-333-555-111-333-111-|
C|------------------333-555-111---------|
PM                  *** *** *** 


Main Riff 
D|-------------------------------------|
A|-------------------------------------|
F|-------------------------------------|
C|-------------------------------------|
G|-0-0-0-0-0-0-0-0-0-0-5-3-5-3-0-3-6\\-|
C|-0-0-0-0-0-0-0-0-0-0-5-3-5-3-0-3-6\\-|
PM * * * * * * * * * * 
Tap to rate this tab
 
# A B C D E F G H I J K L M N O P Q R S T U V W X Y Z