Song name
# A B C D E F G H I J K L M N O P Q R S T U V W X Y Z

Washya - Drying Up tab

-----------------------------------------------------------------------------
                          Drying Up - Washya
-----------------------------------------------------------------------------
Tuning: Drop D (DADGBE)
Intro
E|------------------------------------------------|
B|------------------------------------------------|
G|------------------------------------------------|
D|------------------------------------------------|
A|------5------3------5h6p5------3----------------|
D|-0000---0000---0000-------0000---0000-5h6p5p3p0-|
PM ****   ****   ****       ****   **** 

Part 2
E|-0-0-0-0-|
B|-0-0-0-0-|
G|-0-0-0-0-|
D|-3-5-1-3-|
A|-3-5-1-3-|
D|-3-5-1-3-|

Verses
E|--------------------------------------------------------------------|
B|--------------------------------------------------------------------|
G|--------------------------------------------------------------------|
D|--------------------------------------------------------------------|
A|-3333333333333333/5555555555555555\1111111111111111/333333333333333-|
D|-3333333333333333/5555555555555555\1111111111111111/333333333333333-|
PM ****************************************************************** 

Chorus
E|-------------------------------------------------------------------|
B|-------------------------------------------------------------------|
G|-----5-----5-----5-----7-----7-----7-----3-----3-----3-------------|
D|-------------------------------------------------------------------|
A|---3-----3-----3-----5-----5-----5-----1-----1-----1---333-111/6\\-|
D|-3-----3-----3-----5-----5-----5-----1-----1-----1-----333-111/6\\-|
PM * *   * *   * *   * *   * *   * *   * *   * *   * *   
Tap to rate this tab
# A B C D E F G H I J K L M N O P Q R S T U V W X Y Z