Song name
# A B C D E F G H I J K L M N O P Q R S T U V W X Y Z

Washya - Break Your Face tab

-----------------------------------------------------------------------------
                     Break Your Face - Washya
-----------------------------------------------------------------------------
Tuning: Drop D (DADGBE)
Intro
E|--------------------------------------------------|
B|--------------------------------------------------|
G|-----------------------------------------------5*-|
D|-----------------------------------------0h2h3----|
A|-----------------------------------0h2h4----------|
D|-6-3-4-1-6-3-4-1-6-3-4-1-6-3-4-1-0----------------|
PM * * * * * * * * * * * * * * * * * 

Intro 2 (Main Riff)
E|--------------------------------------------------|
B|--------------------------------------------------|
G|-----------------------------------------------5*-|
D|-----------------------------------------0h2h3----|
A|-6-3-4-1-6-3-4-1-6-3-4-1-6-3-4-1-0-0h2h4----------|
D|-6-3-4-1-6-3-4-1-6-3-4-1-6-3-4-1-0----------------|

Verses
E|-------------------------------------------------------|
B|-------------------------------------------------------|
G|-----------3-----------3p2h3-----------2h3p2-----------|
D|---------------------------------------------5p3p2-----|
A|-------------------------------------------------------|
D|-0-0-0-0-0---0-0-0-0-0-------0-0-0-0-0-------------5p4-|
PM * * * * *   * * * * *       * * * * *     

E|-------------------------------------------|
B|-------------------------------------------|
G|-------5-------5p4h5-------4h5p4-----------|
D|---------------------------------7p5p4-----|
A|---------------------------------------7\6-|
D|-22222---22222-------22222-------------7\6-|
PM *****   *****       ***** 

Chorus
E|---------------------------------------------------------|
B|---------------------------------------------------------|
G|--------------------------------------------------3*-----|
D|-------33---------3p2-------------55-----/7p5p4----------|
A|-55-xx-11-x-3-3h5-----3---xx-22-x-33-5\\--------5----1/3-|
D|-55-xx----x-3-----------2-xx-22-x----5\\-------------1/3-|
Tap to rate this tab
# A B C D E F G H I J K L M N O P Q R S T U V W X Y Z