Song name
# A B C D E F G H I J K L M N O P Q R S T U V W X Y Z

Washya - Midnight Swim tab

-----------------------------------------------------------------------------
                           Midnight Swim - Washya
-----------------------------------------------------------------------------
Tuning: Drop D (DADGBE)
Intro
E|---------------------------------------------------------------|
B|---------------------------------------------------------------|
G|-----------------------------------7h8p7---7-------------------|
D|---------------8-7-----------------------9---9-8-7-------------|
A|-----6-5-3---------5-----6-5-3---------------------8-7-5-7-6-5-|
D|-000-------000-------000-------000-----------------------7-6-5-|
PM ***       ***       ***       *** 

Part 2
E|------------------------------|
B|------------------------------|
G|------------------------------|
D|-----------------------3---5b-|
A|-----3*-----3*---3h5h6---5----|
D|-222----222----2--------------|
PM ***    ***    * 

Verses
E|-------------------------------------------------------------------------|
B|----------------------------12-------------------10----------------------|
G|-12p10----14p12-------12p10----13p12p10----13p12----12p10----------------|
D|-------10-------12p10-------------------12----------------12-------------|
A|-------------------------------------------------------------12p10-------|
D|-------------------------------------------------------------------13b~\-|
PM ***** ** ***** ***** ***** ** ******** ** ***** ** ***** ** ***** *** 

just Before Chorus
E|--------------------------------------|
B|--------------------------------------|
G|-5555555\4444/8888888/1212121212/14b~-|
D|--------------------------------------|
A|-3333333\2222/6666666/1010101010/12b~-|
D|--------------------------------------|

Chorus/Intro
E|---------------------------------------------------------------|
B|---------------------------------------------------------------|
G|-----------------------------------7h8p7---7-------------------|
D|---------------8-7-----------------------9---9-8-7-------------|
A|-----6-5-3---------5-----6-5-3---------------------8-7-5-7-6-5-|
D|-000-------000-------000-------000-----------------------7-6-5-|
PM ***       ***       ***       *** 

Tap to rate this tab
# A B C D E F G H I J K L M N O P Q R S T U V W X Y Z