Song name
# A B C D E F G H I J K L M N O P Q R S T U V W X Y Z

Washya - Clash Of The Titans tab

-----------------------------------------------------------------------------
                  Clash Of The Titans - Washya
-----------------------------------------------------------------------------
Tuning: Drop D (DADGBE)
Intro
E|-----------------------------------------------------|
B|-----------------------------------------------------|
G|-----------------------------------------------------|
D|---5---4---4-5---5---4---4-5---5---4---4-----2-------|
A|-2---2---2-----2---2---2-----2---2---2---5-4---5-4---|
D|---------------------------------------------------2-|
PM * * * * * * * * * * * * * * * * * * * * * * * * * 

Part 2
E|-------------------------------------------------------------------------|
B|-------------------------------------------------------------------------|
G|-------------------------------------------------------------------------|
D|-------------------------------------------------------------------------|
A|-------------------------------------------------------------------------|
D|-22-2-2-222-22-2-22-2-22-2-2222-2-22-2320-222-22-2-22-2-22-2-22-2-0-2222-|
PM ** * * *** ** * ** * ** * **** * ** **** *** ** * ** * ** * ** * * ****

E|------|
B|------|
G|------|
D|------|
A|------|
D|-2-22-|x2
PM * ** 

Verses
E|---------------------------------------------|
B|---------------------------------------------|
G|---------------------------------------------|
D|---------------------------------------------|
A|-00-2-0-0-2-0-0-2-0-2-0-0-0-2-3-22-0-2-0-2-0-|
D|-00-2-0-0-2-0-0-2-0-2-0-0-0-2-3-22-0-2-0-2-0-|

Chorus
E|------------------------------------------------------------------------|
B|------------------------------------------------------------------------|
G|-9-9-8\3-2---------------4-4-3---------------------66666-55-666---------|
D|-9-9-8\3-2---------------4-4-3---------------------55555-55-555---------|
A|-7-6-6\1-0---------------2-1-1-111----1----1-------33333-22-223---------|
D|-----------3-2-0-22-0-22-----------32---32---32-03--------------320-2-0-|
PM           * * * ** * **       *** ** * ** * ** **              *** * * 
Tap to rate this tab
# A B C D E F G H I J K L M N O P Q R S T U V W X Y Z