Song name
# A B C D E F G H I J K L M N O P Q R S T U V W X Y Z

Washya - Tangled Mesh tab

-----------------------------------------------------------------------------
              Tangled Mesh - Washya
-----------------------------------------------------------------------------
Tuning: Drop C (DAFCGC)
Intro
D|-----------------------------------------------------|
A|-----------------------------------------------------|
F|----6-6p5h6-----5--------------------3---------------|
C|------------5h6---8p7p5-----5------------------------|
G|------------------------4h5------5h6---6p5---3-------|
C|-00---------------------------00-----------6---6p5p3-|
PM **                           **                            

Verses
D|-------------------------------------------------------------------|
A|-------------------------------------------------------------------|
F|-------------------------------------------------7h8p7------7------|
C|-------------------8\7/8-------------------------------10p8--------|
G|-------------------6\5/6-5/6/7--------------------------------8/10-|
C|-0-0-0-0-0-0-0-0-0-------5/6/7-0-0-0-0-0-0-0-0-0-------------------|
PM * * * * * * * * *             * * * * * * * * * 

Chorus
D|------------------------------------------------------------------------|
A|------------------------------------------------------------------------|
F|---------7h8p7-------------8p7h8-8-5------------------------------------|
C|-/7-9-10-------10p8p7h8h10-------8-5-------6-3--------------7h8p7-------|
G|---------------------------------6-3-----3-----5-3----7h8-5-------8p7p5-|
C|-------------------------------------3-6------------5-------------------|
PM                                     * * * * * * *  

Verses
D|-------------------------------------------------------------------|
A|-------------------------------------------------------------------|
F|-------------------------------------------------7h8p7------7------|
C|-------------------8\7/8-------------------------------10p8--------|
G|-------------------6\5/6-5/6/7--------------------------------8/10-|
C|-0-0-0-0-0-0-0-0-0-------5/6/7-0-0-0-0-0-0-0-0-0-------------------|
PM * * * * * * * * *             * * * * * * * * * 

Tap to rate this tab
# A B C D E F G H I J K L M N O P Q R S T U V W X Y Z