Song name
# A B C D E F G H I J K L M N O P Q R S T U V W X Y Z

Washya - Heaven Skies tab

-----------------------------------------------------------------------------
                         Heaven Skies - Washya
-----------------------------------------------------------------------------
Tuning: Standard (EBGDAE)
Intro/Verses
E|-----------0---0---------------0---0-------------------0-------0---0-|
B|---------2---2-------1-----------3---------1h2p1-1---------------3-3-|
G|-------2-----------2---------0-----------0---------2-----------------|
D|-----2-----------2---------2-----------2-------------3-----3---------|
A|---0---------------------2-----------2-------------------3---3-------|
E|-0---------------------0---------------------------------------------|

Chorus
E|--------------------------------------------------------------------------|
B|--------------------------------------------------------------------------|
G|-2-222-5-555-------------------------1-111-------7-7\3-333/5--------------|
D|-2-222-5-555-3-333-2-xx-x------------2-222-2-222-7-7\3-333/5--------------|
A|-0-000-3-333-3-333-2-xx-x------------2-222-2-222-5-5\1-111/3-xx-----------|
E|-------------1-111-0-xx-x-1h3-1h3p1~-------0-000-------------xx-1h3-1h3p1-|
PM                          *** ****                              *** ***** 
Tap to rate this tab
 
# A B C D E F G H I J K L M N O P Q R S T U V W X Y Z