Song name
# A B C D E F G H I J K L M N O P Q R S T U V W X Y Z

Washya - Driven tab

-------------------------------------------------------------------------------
              Driven - Washya
-------------------------------------------------------------------------------
Tuning: Drop D (DADGBE)
Intro
E|--------------------------------------------------------|
B|---------------------5b---------------------------------|
G|---------------------5b---------------------------------|
D|--------------------------------------------------------|
A|-0-111-0--0-111-0--0----0-111-0--0-111-0--1h3-1h4p3p1-0-|
D|-0-111-0--0-111-0--0----0-111-0--0-111-0--1h3-1h4p3p1-0-|
PM                                          *** ******* 

Verses
E|-------------------------------------------------------------|
B|-------------------------------------------------------------|
G|-------3---6------------------------6*-----------------------|
D|-----4---4---4-2------------6---6------7-5-------------------|
A|---2-------------5-4-2----4---4---4--------6-5-3-0-1-0-3-2-1-|
D|-0---------------------/4------------------------0-1-0-3-2-1-|
PM *                                               * * * * * * 

Chorus
E|---------------------------------------------------------------------|
B|---------------------------------------------------------------------|
G|---------------------------------------------------------------------|
D|-------888-5-----2-------555-8---------------------------------------|
A|-222-2-666-3-3-4-0-4-3-1-333-6-7-8-7-5-7-33333-55555-----0-2-0-1-333-|
D|-222-2-------3-4---4-3-1-------7-8-7-5-7-33333-55555-0-3-------1-333-|
PM                                         ***** ***** * * * * * 
Tap to rate this tab
# A B C D E F G H I J K L M N O P Q R S T U V W X Y Z