Song name
# A B C D E F G H I J K L M N O P Q R S T U V W X Y Z

Washya - Behind The Glass tab

-------------------------------------------------------------------------------
          Behind The Glass - Washya
-------------------------------------------------------------------------------
Tuning: Drop D (ebgdad)
Intro
E|-3-3-6-6-------------1-1-4-4-------------|
B|-3-3-6-6-------------1-1-4-4-------------|
G|-4-4-7-7-------------2-2-5-5-------------|
D|-5-5-8-8-8-6-5-------3-3-6-6-6-4-3-------|
A|-3-3-6-6-------7-7~~-1-1-4-4-------5-5~~-|
D|-3-3-6-6-------------1-1-4-4-------------|

Verses
E|---------------------------------------------|
B|---------------------------------------------|
G|---------------------------------------------|
D|-2-222-4-2-2-22-4-2-222-4-2-2-22-4-----2-----|
A|-0-000-2-0-0-00-2-0-000-2-0-0-00-2-----0-2-3-|
D|-----------------------------------2h3---2-3-|
PM                                   ***  

Chorus
E|--------------------------------------------------------|
B|--------------------------------------------------------|
G|-888-5-5/7-77-3-------------9999999/7777777---333-5-555-|
D|-888-5-5/7-77-3-------3h5p3-9999999/7777777---333-5-555-|
A|-666-3-3/5-55-1-----5-------7777777/5555555---111-3-333-|
D|-666-3-3/5-55-1-3-6---------------------------111-3-333-|
PM                * * * ***** 
Tap to rate this tab
 
# A B C D E F G H I J K L M N O P Q R S T U V W X Y Z