Song name
# A B C D E F G H I J K L M N O P Q R S T U V W X Y Z

Washya - City On Fire tab

-----------------------------------------------------------------------------
                 City On Fire - Washya
-----------------------------------------------------------------------------
Tuning: Drop D (EBGDAD)
Intro
E|------------------------------------------------------------------------|
B|------------------------------------------------------------------------|
G|------------77------------------55-----------------------10-------------|
D|-----77------------7-----55------------5-----8-----7------------8-----7-|
A|-555----555----555---333----333----333---555---555---555----555---555---|
D|-555----555----555---333----333----333---555---555---555----555---555---|
PM ***    ***    ***   ***    ***    ***   ***   ***   ***    ****  *** 

Verses
E|-------------------------------------------------------------|
B|-------------------------------------------------------------|
G|----------77---------------55-------------------10-----------|
D|----77----55----7----55----33----5----8----7----5-----8----7-|
A|----55----55----5----33----33----3----5----5----5-----5----5-|
D|-55555-55555-5555-33333-33333-3333-5555-5555-5555--5555-5555-|
PM ***   ***   ***  ***   ***   ***  ***  ***  ***   ***  *** 

Chorus
E|-------------------------------------------------------------------|
B|-------------------------------------------------------------------|
G|-------------------------------------------------------------------|
D|-88-55-77----88-55-77----88-55-77----77------1010-77-99-7h88-3-6\\-|
A|----------55----------77----------88----55-/------------7h88-3-6\\-|
D|--------------------------------------------------------7h88-3-6\\-|
PM ** ** ** ** ** ** ** ** ** ** ** ** ** **   **** ** **  

Verses
E|-------------------------------------------------------------|
B|-------------------------------------------------------------|
G|----------77---------------55-------------------10-----------|
D|----77----55----7----55----33----5----8----7----5-----8----7-|
A|----55----55----5----33----33----3----5----5----5-----5----5-|
D|-55555-55555-5555-33333-33333-3333-5555-5555-5555--5555-5555-|
PM ***   ***   ***  ***   ***   ***  ***  ***  ***   ***  *** 
Tap to rate this tab
 
# A B C D E F G H I J K L M N O P Q R S T U V W X Y Z