Song name
# A B C D E F G H I J K L M N O P Q R S T U V W X Y Z

Washya - Lets Run tab

-------------------------------------------------------------------------------
                           Let's Run - Washya
-------------------------------------------------------------------------------
Tuning: Drop D (EBGDAD)
Intro
E|----------------------------------------------------|
B|----------------------------------------------------|
G|----------------------------------------------------|
D|-------------5-------7-------8-------10-------------|
A|-------3---3-3-------5-------6-------8--------3-----|
D|-0-3-5---5-----00000---00000---00000----0-3-5---5-3-|
PM               *****   *****   ***** 

verses
E|------------------------------------------------------------------|
B|------------------------------------------------------------------|
G|------------------------------------------------------------------|
D|------------------------------------------------------------------|
A|--------3--------5--------6--------8-------3-----111111111-000000-|
D|-000000---000000---000000---000000---0-3-5---5-3-111111111-000000-|
PM ******   ******   ******   ****** 

Chorus
E|---------------------------------------------------------------|
B|---------------------------------------------------------------|
G|---------------------------------------------------------------|
D|-5/7-5/7-5/7-------------------5/7-5/7-5/7---------------------|
A|-3/5-3/5-3/5-33333333-11111111-3/5-3/5-3/5-555555555-111111111-|
D|-------------33333333-11111111-------------555555555-111111111-|
Tap to rate this tab
# A B C D E F G H I J K L M N O P Q R S T U V W X Y Z