Song name
# A B C D E F G H I J K L M N O P Q R S T U V W X Y Z

Washya - Entrance Too Salvation tab

-------------------------------------------------------------------------------
                   Entrance Too Salvation - Washya
-------------------------------------------------------------------------------
Tuning: Drop D (EBGDAD)
Intro/Chorus
E|----------------------------|
B|----------------------------|
G|----------------------------|
D|--------77\6/9999-----------|
A|--------55\4/7777-0-3-5-6\\-|
D|-\\xx//-----------0-3-5-6\\-|

Verses
E|----------------------|
B|----------------------|
G|----------------------|
D|----------------------|
A|--------0-3-5-6-0-1-0-|
D|-000000-0-3-5-6-0-1-0-|
PM ****** 

Lead
E|-----------------------------------------------------------13b~-13t18p15-|
B|-----------------------------------------------------------11b~----------|
G|-----------------------------------9-8-6---6-7-9/11-9----9---------------|
D|-------------------6-7---6-7---6-7-------8------------10-----------------|
A|-------4-6-7-4-6-7-----9-----9-------------------------------------------|
D|-3-5-6-------------------------------------------------------------------|
PM * * * * * * * * * *  

E|-13t18p15p13t18p15p13t19p15p13t18p15p13\\-|
B|------------------------------------------|
G|------------------------------------------|
D|------------------------------------------|
A|------------------------------------------|
D|------------------------------------------|
Tap to rate this tab
# A B C D E F G H I J K L M N O P Q R S T U V W X Y Z