Song name
# A B C D E F G H I J K L M N O P Q R S T U V W X Y Z

Washya - Post Enebriated Anxiety tab

-----------------------------------------------------------------------------
           Post Enebriated Anxiety - washya (Grinspoon)
-----------------------------------------------------------------------------
Tuning: Drop D (Lots of distortion)
Intro
E|------------------------|
B|------------------------|
G|------------------------|
D|-3-55-3-55-3-55-3-5-3-5-|
A|-3-55-3-55-3-55-3-5-3-5-|
D|-3-55-3-55-3-55-3-5-3-5-|x many

Part 2
E|-----------------------------------------------|
B|-----------------------------------------------|
G|-----------------------------------------------|
D|-x-0-2-3-0-2-3-x-3-0-2-3-x-3-0-2-3-x-3-0-2-/5\-|
A|-x-0-2-3-0-2-3-x-3-0-2-3-x-3-0-2-3-x-3-0-2-/5\-|
D|-x-0-2-3-0-2-3-x-3-0-2-3-x-3-0-2-3-x-3-0-2-/5\-|

Verses
E|-----------------------------------------------|
B|-----------------------------------------------|
G|-----------------------------------------------|
D|-x-0-2-3-0-2-3-x-3-0-2-3-x-3-0-2-3-x-3-0-2-/5\-|
A|-x-0-2-3-0-2-3-x-3-0-2-3-x-3-0-2-3-x-3-0-2-/5\-|
D|-x-0-2-3-0-2-3-x-3-0-2-3-x-3-0-2-3-x-3-0-2-/5\-|
PM   * * * * * *   * * * *   * * * *   * * *  

Chorus
E|-----------------------------------------------|
B|-----------------------------------------------|
G|-----------------------------------------------|
D|-0-5-0-33-0-5-0-33-6-5-3-0-5-0-3-0-5-0-3-6-5-3-|
A|-0-5-0-33-0-5-0-33-6-5-3-0-5-0-3-0-5-0-3-6-5-3-|
D|-0-5-0-33-0-5-0-33-6-5-3-0-5-0-3-0-5-0-3-6-5-3-|

Part 3
E|-----------------------------------------------------------------|
B|-----------------------------------------------------------------|
G|-----------------------------------------------------------------|
D|-0-5-0-33-0-5-0-33-6-5-3-0-5-0-33-0-5-0-33-6-5-3-6-5-3-000-6-5-3-|
A|-0-5-0-33-0-5-0-33-6-5-3-0-5-0-33-0-5-0-33-6-5-3-6-5-3-000-6-5-3-|
D|-0-5-0-33-0-5-0-33-6-5-3-0-5-0-33-0-5-0-33-6-5-3-6-5-3-000-6-5-3-|

E|-------------------------------------------|
B|-------------------------------------------|
G|-------------------------------------------|
D|-6-5-3-000-6-5-3-6-5-3-000-6-5-3-6-5-3-000-|
A|-6-5-3-000-6-5-3-6-5-3-000-6-5-3-6-5-3-000-|
D|-6-5-3-000-6-5-3-6-5-3-000-6-5-3-6-5-3-000-|

Interlude
E|---------------------|
B|---------------------|
G|---------------------|
D|---------------------|
A|---------------------|
D|-5-0-3-0-5-0-3-6-5-3-|x3
PM * * * * * * * * * * 

Part 3/Outro
E|-----------------------------------------------------------------|
B|-----------------------------------------------------------------|
G|-----------------------------------------------------------------|
D|-0-5-0-33-0-5-0-33-6-5-3-0-5-0-33-0-5-0-33-6-5-3-6-5-3-000-6-5-3-|
A|-0-5-0-33-0-5-0-33-6-5-3-0-5-0-33-0-5-0-33-6-5-3-6-5-3-000-6-5-3-|
D|-0-5-0-33-0-5-0-33-6-5-3-0-5-0-33-0-5-0-33-6-5-3-6-5-3-000-6-5-3-|

E|-------------------------------------------|
B|-------------------------------------------|
G|-------------------------------------------|
D|-6-5-3-000-6-5-3-6-5-3-000-6-5-3-6-5-3-000-|
A|-6-5-3-000-6-5-3-6-5-3-000-6-5-3-6-5-3-000-|
D|-6-5-3-000-6-5-3-6-5-3-000-6-5-3-6-5-3-000-|

Tap to rate this tab
# A B C D E F G H I J K L M N O P Q R S T U V W X Y Z