Song name
# A B C D E F G H I J K L M N O P Q R S T U V W X Y Z

Washya - Zero Resistance tab

-----------------------------------------------------------------------------
                      Zero Resistance - Washya
-----------------------------------------------------------------------------
Tuning: Standard (EBGDAE)
Intro
E|---------------------------------------------------------------------|
B|---------------------------------------------------------------------|
G|-6~----------6~----------4~---------4~---------3~---------3~---------|
D|-----6-/9p8~----6-/9-8~-----4-/7p6~----4-/7-6~----3-/6p5~----3-/6-5~-|
A|-4~--4-------4~-4--7-7~--2~-2-------2~-2--5-5~-1~-1-------1~-1--4-4~-|
E|---------------------------------------------------------------------|x2

Verses
E|----------------------------------------------------------------|
B|----------------------------------------------------------------|
G|----------------------------------------------------------------|
D|----------------------------------------------------------------|
A|-44444444-22222222-55555555-11111111-------------------55555555-|
E|-------------------------------------33333333-11111111----------|
PM ******** ******** ******** ******** ******** ******** ******** 

Interlude
E|-------------------------|
B|-------------------------|
G|-6---8----10-9---5-3-----|
D|-------------------------|
A|-4-6-6-6-/8--7-6-3-1-3/5-|
E|---4---4-------4-----1/3-|

Chorus
E|-----------------------------------------------------------|
B|-----------------------------------------------------------|
G|-6-66--6-9-999-9-------------333-33-3/555-55-5-------------|
D|-----------------------------------------------------------|
A|-4-444-4-7-777-7-999-888-777-111-11-1/333-33-3-555-444-333-|
E|-----------------777-666-555-------------------333-222-111-|
PM                 *** *** ***                   *** *** *** 
Tap to rate this tab
# A B C D E F G H I J K L M N O P Q R S T U V W X Y Z