Song name
# A B C D E F G H I J K L M N O P Q R S T U V W X Y Z

Washya - Festival Of Sickness tab

-------------------------------------------------------------------------------
        Festival Of Sickness - Washya
-------------------------------------------------------------------------------
Tuning: Drop D (EBGDAD)
Intro
E|-----------------------------------------|
B|-----------------------------------------|
G|-------------------------------------5-3-|
D|----xx----xx-------3p1p0-------3h5p3-5-3-|
A|-xx-xx-xx-xx-0h3h5-------5p3p0-------3-1-|
D|-xx----xx--------------------------------|x 5 

Verses
E|-----------------------------------------------------------------|
B|-----------------------------------------------------------------|
G|---------------5-3-----------------------------5-7---------------|
D|---------------5-3-----------------------------5-7---------------|
A|-000-00-000-00-3-1-3-0-5-6-5-3-5-000-00-000-00-3-5-7-0-7-8-7-5-7-|
D|-000-00-000-00-----3-0-5-6-5-3-5-000-00-000-00-----7-0-7-8-7-5-7-|
PM *** ** *** **                   *** ** *** ** 

Chorus
E|------------------------------------------------------|
B|------------------------------------------------------|
G|------------------------------------------------------|
D|--------------5p3p0-------------------6p5p3-----------|
A|-000-00-3h4h5------------000-00-------------1h2h3-3/5-|
D|-000-00-------------1/3~-000-00-0h3p0-------------3/5-|
PM *** **                  *** ** 

Solo
E|------------------------------|
B|------------------------------|
G|-8b~-8p7h8p7~-3h5p3~~-5b~-7\\-|
D|------------------------------|
A|------------------------------|
D|------------------------------|

E|-12h13h15p13p12----13p12----------------------12h14h15p14p12----------|
B|----------------15-------15p13p12----12h15p13----------------15p13p12-|
G|----------------------------------13----------------------------------|
D|----------------------------------------------------------------------|
A|----------------------------------------------------------------------|
D|----------------------------------------------------------------------|

E|----------------15p13-----------------------------------------------------|
B|----12h15h14h12-------12h15p13----14p12-------12h14----13p12bp10/14h15p14-|
G|-14----------------------------15-------15p13-------15--------------------|
D|--------------------------------------------------------------------------|
A|--------------------------------------------------------------------------|
D|--------------------------------------------------------------------------|

E|------------------------|
B|-15p14h15p14h15p12~~~\\-|
G|------------------------|
D|------------------------|
A|------------------------|
D|------------------------|

Tuning: Drop D (EBGDAD)
Intro
E|-----------------------------------------|
B|-----------------------------------------|
G|-------------------------------------5-3-|
D|----xx----xx-------3p1p0-------3h5p3-5-3-|
A|-xx-xx-xx-xx-0h3h5-------5p3p0-------3-1-|
D|-xx----xx--------------------------------|x 5 

Verses
E|-----------------------------------------------------------------|
B|-----------------------------------------------------------------|
G|---------------5-3-----------------------------5-7---------------|
D|---------------5-3-----------------------------5-7---------------|
A|-000-00-000-00-3-1-3-0-5-6-5-3-5-000-00-000-00-3-5-7-0-7-8-7-5-7-|
D|-000-00-000-00-----3-0-5-6-5-3-5-000-00-000-00-----7-0-7-8-7-5-7-|
PM *** ** *** **                   *** ** *** ** 

Chorus
E|------------------------------------------------------|
B|------------------------------------------------------|
G|------------------------------------------------------|
D|--------------5p3p0-------------------6p5p3-----------|
A|-000-00-3h4h5------------000-00-------------1h2h3-3/5-|
D|-000-00-------------1/3~-000-00-0h3p0-------------3/5-|
PM *** **                  *** ** 
Tap to rate this tab
# A B C D E F G H I J K L M N O P Q R S T U V W X Y Z