Song name
# A B C D E F G H I J K L M N O P Q R S T U V W X Y Z

Washya - Sunday Sesh tab

-----------------------------------------------------------------------------
                         Sunday Sesh - Washya
-----------------------------------------------------------------------------
Tuning: Standard (EBGDAE)
Intro/Verses
E|-------------------------------------------------------------------------|
B|-----------------------------------------------------------------0---0---|
G|-----0-----0-----------------2-----2-----------------0-----0---2-------2-|
D|---4-----4-------0-----0---2-----2-------4-----4---2-----2---2-----2-----|
A|-2-----2-------4-----4---4-----4-------4-----4---4-----4-----------------|
E|-------------2-----2-----------------2-----2-----------------------------|

E|---------------------------------------------------------------------2-|
B|-----0---1p0---1p0-------------------------------------------3-----3-3-|
G|---2-------------------3-----3-----2-----2---------------------------2-|
D|-2-----2-----2-------4-----4-------------------1-----1p0---2-----2-----|
A|-------------------2-----2-------3-----3-----3-----3-----2-----2-------|
E|-------------------------------1-----1-----1-----1---------------------|

Chorus
E|--------------------------------|
B|--------------------------------|
G|-444--------66-444--------------|
D|-444-44-777-66-444-44-777-10-10-|
A|-222-44-777-44-222-44-777-10-10-|
E|-----22-555--------22-555-8--8--|
Tap to rate this tab
 
# A B C D E F G H I J K L M N O P Q R S T U V W X Y Z