Song name
# A B C D E F G H I J K L M N O P Q R S T U V W X Y Z

Washya - Dark Cloud tab

------------------------------------------------------------------------------
                          Dark Cloud - Washya
------------------------------------------------------------------------------
Tuning: Drop D (DADGBE)
Intro
E|----------------------------------------------------------------------|
B|----------------------------------------------------------------------|
G|----------------------------------------------------------------------|
D|----------------------------------------------------------------------|
A|-1-xxxxxxxx-11-xxxxxxxx-11-3/4-xxxxxxxx-1-xxxxxxxx-11-xxxxxxxx-11/4\\-|
D|-1-xxxxxxxx-11-xxxxxxxx-11-3/4-xxxxxxxx-1-xxxxxxxx-11-xxxxxxxx-11/4\\-|x3

Verses
E|--------------------------------------------------------------------|
B|--------------------------------------------------------------------|
G|--------------------------------------------------------------------|
D|--------------55-------------------------------33-------------------|
A|-xxxxxxxxxxxx-33--xxxxxxxxxxxx-55-xxxxxxxxxxxx-11-xxxxxxxxxxxx-4310-|
D|-xxxxxxxxxxxx-----xxxxxxxxxxxx-55-xxxxxxxxxxxx----xxxxxxxxxxxx-4310-|

Chorus
E|-12----9-9-9/12-------14----14--------------------------------|
B|-12p10p9-9-9/12-13-13----13----13-----------------------------|
G|----------------14-14-------------14--------------------------|
D|----------------15-15----------------15----13-15----------7~~-|
A|----------------15-15-------------------15-13-15-10h12-/9-----|
D|-------------------------------------------13-15--------------|

Tap to rate this tab
# A B C D E F G H I J K L M N O P Q R S T U V W X Y Z