Song name
# A B C D E F G H I J K L M N O P Q R S T U V W X Y Z

Washya - Gunned Down tab

------------------------------------------------------------------------------
                          Gunned Down - Washya
------------------------------------------------------------------------------
Tuning: Drop D (DADGBE)
intro
E|--------------------------------------------|
B|--------------------------------------------|
G|-----------------5-555-5\3-333-3------------|
D|-2-222-2/5-555-5-5-555-5\3-333-3-3-333-3/5~-|
A|-2-222-2/5-555-5-3-333-3\1-111-1-3-333-3/5~-|
D|-2-222-2/5-555-5-----------------3-333-3/5~-|
PM   ***     ***     ***     ***     ***

Verses
E|-------------------------------------------------------------------|
B|-------------------------------------------------------------------|
G|-----------------55-----------------3/5----------------------------|
D|-----------------55-----------------3/5-----------------3-1-0-33/5-|
A|-----------------33-----------------1/3-----------------3-1-0-33/5-|
D|-0-0-0-0-0-0-0-0----0-0-0-0-0-0-0-0-----0-0-0-0-0-0-0-0-3-1-0-33/5-|
PM * * * * * * * *    * * * * * * * *     * * * * * * * * 

Chorus
E|-------------------------------------------------------------------|
B|-------------------------------------------------------------------|
G|-5-5-555-------------------------3-3-333/5-5-555---------------7/9-|
D|-5-5-555-5-5-555-8-8-888-3-3-333-3-3-333/5-5-555-1-1-111/33333-7/9-|
A|-3-3-333-5-5-555-8-8-888-3-3-333-1-1-111/3-3-333-1-1-111/33333-5/7-|
D|---------5-5-555-8-8-888-3-3-333-----------------1-1-111/33333-----|
PM                                                          **** 
Tap to rate this tab
# A B C D E F G H I J K L M N O P Q R S T U V W X Y Z