Song name
# A B C D E F G H I J K L M N O P Q R S T U V W X Y Z

Washya - Free Love tab

-------------------------------------------------------------------------------
                               Free Love - Washya
-------------------------------------------------------------------------------
Tuning: Standard (EBGDAE)
intro (rockin song)
E|----------------------------------------------------|
B|----------------------------------------------------|
G|---------------------5h7p5-----------7-6-5-------77-|
D|-----5h7p5-----------------8p7p5-----------7-6-5-77-|
A|-----------8p7p5---------------------------------55-|
E|-5-5-------------3-3-------------7-7-------------55-|x2
PM * *             * *             * * 

Verses
E|----------------------------------------------------------------------|
B|------------5---55--------------5-5--------------3---5---55-----------|
G|-5----55----5---55----6p5p3-----5-5-6p5p3--------3---5---55-----------|
D|-5----55----5---55----------6p5-5-5-------3/5----3---5---55---------5-|
A|-3-xx-33-xx-3-x-33-xx-----------3-3-----------xx-1-x-3-x-33-----3h5-5-|
E|---xx----xx---x----xx-------------------------xx---x---x----3h5-----3-|
PM                                                            *** *** 

Chorus
E|---------------------------------------------------------------------|
B|-----------------------------------77----77--------------7-77-7-7-77-|
G|----------------------555----55----77----77--------------7-77-7-7-77-|
D|-777----7-----5/8p7p5-555----55----77----77-/7p6p4/7p6p4-7-77-7-7-77-|
A|-777-xx-7-5h7---------333-xx-33-xx-55-xx-55--------------5-55-5-5-55-|
E|-555-xx-5-----------------xx----xx----xx-----------------------------|
Tap to rate this tab
# A B C D E F G H I J K L M N O P Q R S T U V W X Y Z