Song name
# A B C D E F G H I J K L M N O P Q R S T U V W X Y Z

Washya - Original Fire tab

-----------------------------------------------------------------------------
                    Original Fire - Washya
-----------------------------------------------------------------------------
Tuning: Standard (EBGDAE)
intro
E|----------17-17----------------12-12--------------|
B|-15-15-15----------------------12-12-12/15-15-----|
G|----------------15-15-15/13h15-------12/15-15-13~-|
D|--------------------------------------------------|
A|--------------------------------------------------|
E|--------------------------------------------------|x2

Verses
E|-----------------------xx-12-xx-12-12h15p10~----------------------------|
B|---1-11---1---1---1----xx-12-xx-12-12h15p10~----------------------------|
G|-0h2-22-0h2-0h2-0h2-22--------------------------------------------------|
D|-0h2-22-0h2-0h2-0h2-22-----------------------2----2h3-2h3-2~-2----20202-|
A|--------------------00-----------------------2---------------2----------|
E|---------------------------------------------0-00------------0-00-------|
PM                                               **              **

Chorus    D.                D.       Am.                     A.
E|-222-22-2-2---3-2---3p2p0-222-22-2---------------------------------------|
B|-333-33-3---------3-------333-33-3-111-11-1-1---1---1------------------0-|
G|-222-22-2---3-------------222-22-2-222-22-2-------2-----2-222-22-2-2-----|
D|-----------------------------------222-22-2---2-------0---222-22-2---2---|
A|----------------------------------------------------------000-00-0-------|
E|-------------------------------------------------------------------------|

in between breaks (also lead)
E|-----------------5\3---3---------------------------13\11--------<12>-|
B|-----3-----8p6p5-----3-----------11-------16p14p13----------<12>-----|
G|-2h4---4/6----------------/10h12----12/14----------------13----------|
D|---------------------------------------------------------------------|
A|---------------------------------------------------------------------|
E|---------------------------------------------------------------------|
Tap to rate this tab
 
# A B C D E F G H I J K L M N O P Q R S T U V W X Y Z