Song name
# A B C D E F G H I J K L M N O P Q R S T U V W X Y Z

Washya - Dying Breath tab

-----------------------------------------------------------------------------
              Dying Breath - Washya
-----------------------------------------------------------------------------
Tuning: Standard (EBGDAE)(intro ONLY) (then Drop D)
Intro/Verses 
E|-----------------------------------12b-12b-12b-12b--------------------|
B|----------------9b-9b-9b-9b--------12b-12b-12b-12b--------9b-9b-9b-9b-|
G|----------------9b-9b-9b-9b-------------------------------9b-9b-9b-9b-|
D|----------------------------------------------------------------------|
A|----------------------------------------------------------------------|
E|-------------000000-----------------000000-------------|x3
PM                            ******                 ****** 

Chorus (HEAVY!!!!)
E|------------------------------------------------------------------|
B|------------------------------------------------------------------|
G|------------------------------------------------------------------|
D|------------------------------------------------------------------|
A|--------3/5-3/5-3/5-3/5-3/6--------3/5-3/5--------1/3-1/3-1/3-1/4-|
D|-000000-3/5-3/5-3/5-3/5-3/6-000000-3/5-3/5-000000-1/3-1/3-1/3-1/4-|
PM ******                     ******         ****** 

After this play (heavy interlude)
E|---------------------------------------------------|
B|---------------------------------------------------|
G|---------------------------------------------------|
D|---------------------------------------------------|
A|-----3---1---3---4---1---3/5-----3---5---1---3h4\\-|
D|-000-3-0-1-0-3-0-4-0-1-0-3/5-000-3-0-5-0-1-0-3h4\\-|fade out til end
PM ***   *   *   *   *   *     ***   *   *   * 
Tap to rate this tab
# A B C D E F G H I J K L M N O P Q R S T U V W X Y Z