Song name
# A B C D E F G H I J K L M N O P Q R S T U V W X Y Z

Washya - Drunk Blindness tab

-------------------------------------------------------------------------------
                      Drunk Blindness - Washya
-------------------------------------------------------------------------------
Tuning; Standard (EBGDAE)
Intro/Verses
E|--------------------------------------------------------------------------|
B|--------------------------------------------------------------------------|
G|-5b-5b-5p4p2------7b-7b-7p6p4------3b3b-3p2p0-----------------------------|
D|-------------4----------------6---------------2p0-22----3----5------------|
A|---------------22----------------44---------------00-xx-1-xx-3-6p5p3----2-|
E|---------------00----------------22------------------xx---xx--------6p5-0-|
PM               **                **                               

Verses
E|----------------------------|
B|----------------------------|
G|-5b5b-----------------------|
D|-5b5b-3h5p3-------3---------|
A|------------5-3-5-1-5-7-8\\-|
E|------------3-1-3---3-5-6\\-|
Tap to rate this tab
# A B C D E F G H I J K L M N O P Q R S T U V W X Y Z