Song name
# A B C D E F G H I J K L M N O P Q R S T U V W X Y Z

Washya - More Than Life Itself tab

-------------------------------------------------------------------------------
                         More Than Life Itself - Washya
-------------------------------------------------------------------------------
Tuning: Drop D
Intro
E|-------------------|
B|-------------------|
G|-------------------|
D|------6666---------|
A|-5555-4444-555-x-2-|
D|-5555------555-x-2-|x3

Verses
E|---------------------------------------------------------------|
B|---------------------------------------------------------------|
G|---------------------------------------------------------------|
D|-----------------------------------------------------455457/9~-|
A|-555-55-555-555-555--------222-22-222-222-222--------233235/7~-|
D|-555-55-555-555-555-//xx\\-222-22-222-222-222-//xx\\-----------|
PM *** ** *** *** ***        *** ** *** *** *** 

Chorus
E|------------------------------------------------------------|
B|------------------------------------------------------------|
G|------------------------------------------------------------|
D|---------66666--------4444---6666--------------9999---------|
A|-5555-xx-44444-x-3333-2222-x-4444-xx-5555/8888-7777-4h5/7\\-|
D|-5555-xx-------x-3333------x------xx-5555/8888------4h5/7\\-|

Solo
E|------------------------------8b/11b/14b-----------------------------|
B|-------------------------10b-10b/13b/16bp14----14-/17p16p14----14b~~-|
G|-----------------------8/10b----------------15--------------16-------|
D|-----5---7-5/9-7---9-7-----------------------------------------------|
A|-5-7---7---------9---------------------------------------------------|
D|---------------------------------------------------------------------|

Tuning: Drop D
Intro
E|-------------------|
B|-------------------|
G|-------------------|
D|------6666---------|
A|-5555-4444-555-x-2-|
D|-5555------555-x-2-|x3

Verses
E|---------------------------------------------------------------|
B|---------------------------------------------------------------|
G|---------------------------------------------------------------|
D|-----------------------------------------------------455457/9~-|
A|-555-55-555-555-555--------222-22-222-222-222--------233235/7~-|
D|-555-55-555-555-555-//xx\\-222-22-222-222-222-//xx\\-----------|
PM *** ** *** *** ***        *** ** *** *** *** 

Chorus
E|------------------------------------------------------------|
B|------------------------------------------------------------|
G|------------------------------------------------------------|
D|---------66666--------4444---6666--------------9999---------|
A|-5555-xx-44444-x-3333-2222-x-4444-xx-5555/8888-7777-4h5/7\\-|
D|-5555-xx-------x-3333------x------xx-5555/8888------4h5/7\\-|
Tap to rate this tab
# A B C D E F G H I J K L M N O P Q R S T U V W X Y Z