Song name
# A B C D E F G H I J K L M N O P Q R S T U V W X Y Z

Washya - Eyes Of Judgement tab

-------------------------------------------------------------------------------
                         Eyes Of judgement - Washya
-------------------------------------------------------------------------------
Tuning: Drop D (EBGDAD)
Intro
E|-----------------------------------------|
B|-----------------------------------------|
G|-----------------------------------------|
D|-222-------222-------222-------222-------|
A|-000-5-4-0-000-5-4-0-000-5-4-0-000-5-4-2-|
D|-----5-4-0-----5-4-0-----5-4-0-----5-4-2-|

Verses
E|----------------------------------------|
B|-----5-55-----7-77-----3-33-------------|
G|-----5-55-----7-77-----3-33-------------|
D|-----5-55-----7-77-----3-33-------------|
A|-----3-33-----5-55-----1-11-2-444-5-4-2-|
D|-000------000------000------2-444-5-4-2-|
PM ***      ***      *** 

Chorus
E|----------------------------------------------------------|
B|----------------------------------------------------------|
G|----------------------------------------------------------|
D|-2-22-----------5-55-----------8-88-----------------------|
A|-0-00-4-5-2-4-0-3-33-7-8-5-7-3-6-66-10101010-8888-555-7\\-|
D|------4-5-2-4-0------7-8-5-7-3------10101010-8888-555-7\\-|
Tap to rate this tab
 
# A B C D E F G H I J K L M N O P Q R S T U V W X Y Z