Song name
# A B C D E F G H I J K L M N O P Q R S T U V W X Y Z

Washya - Emergencies tab

-------------------------------------------------------------------------------
                           Emergencies - Washya
-------------------------------------------------------------------------------
Tuning: Standard (EBGDAE)
Intro
E|------------------|   |------------------|   |------------------|
B|------------------|   |------------------|   |------------------|
G|-4444-4444-4-4-44-|   |------------------|   |------------------|
D|-4444-4444-4-4-44-|   |-5555-5555-5-5-55-|   |-8888-8888-8-8-88-|
A|-2222-2222-2-2-22-|   |-5555-5555-5-5-55-|   |-8888-8888-8-8-88-|
E|------------------|x2 |-3333-3333-3-3-33-|x2 |-6666-6666-6-6-66-|x2 

Verses
E|-------------------------------------------------------------|
B|---------0---------0---------0-------------------------------|
G|-----0---------0---------0-------------0---------0---------0-|
D|---4---4-----4---4-----4---4-------0---------0---------0-----|
A|-2---------2---------2-----------5---5-----5---5-----5---5---|
E|-------------------------------3---------3---------3---------|

E|-------------------------------|
B|-------------------------------|
G|---------0---------0---------0-|
D|-----0---------0---------0-----|
A|---8---8-----8---8-----8---8---|
E|-6---------6---------6---------|

Chorus
E|----------------------------------------------------------------|
B|----------------------------------------------------------------|
G|------------------------------------------444444444444----------|
D|--------8888888888888888\5555555555555555-444444444444-2------2-|
A|--------8888888888888888\5555555555555555-222222222222-2-xxxx-2-|
E|-//xx\\-6666666666666666\3333333333333333--------------0-xxxx-0-|
Tap to rate this tab
# A B C D E F G H I J K L M N O P Q R S T U V W X Y Z