Song name
# A B C D E F G H I J K L M N O P Q R S T U V W X Y Z

Washya - Chance Given tab

-----------------------------------------------------------------------------
                   Chance Given - Washya
-----------------------------------------------------------------------------
Tuning: Standard (EBGDAE) 
Intro/Verses     
   G,                            D, 
E|-3--------------3--------------2-----2---2---2--------2---2---2------|
B|-3----3p0-3p0-3-3----3p0-3p0-3-3---3---3---3--------3---3---3--------|
G|-0--------------0--------------2---------------2----------------2----|
D|-0--------------0--------------0-00--------------00---------------00-|
A|-x--------------x----------------------------------------------------|
E|-3-33-----------3-33-------------------------------------------------|
PM   **             **             **              **               ** 

Chorus
E|-33-3-33-00-0-00-0---------00-0-00-22-3-22-2-----0---3-3---3----|
B|-33-3-33-11-1-11---1p0-----00-0-00-33-3-33-----3---3-3---3------|
G|-00-0-00-00-0-00-----------00-0-00-22-2-22---2-------0----------|
D|-00-0-00-22-2-22---------2-22-2-22-00-0-00-----------x----------|
A|-xx-x-xx-33-3-33-------3---22-2-22-00-0-00-----------2----------|
E|-33-3-33-00-0-00-----------00-0-00-00-0-00-----------3-------33-|
Tap to rate this tab
# A B C D E F G H I J K L M N O P Q R S T U V W X Y Z