Song name
# A B C D E F G H I J K L M N O P Q R S T U V W X Y Z

Washya - Indespensible tab

-----------------------------------------------------------------------------
                              Indespensible - Washya
-----------------------------------------------------------------------------
Tuning: Drop C (DAFCGC)
Intro
D|----------------------------------------------------------------------|
A|----------------------------------------------------------------------|
F|----------------------------------------------------------------------|
C|----8\7-3-----555-7/8-------555-3/5--8-5-7-777-5/7-9-5-7--------------|
G|----6\5-1-3-5-333-5/6-6-3-5-333-1/3-/6-3-5-555-3/5-7-3-5-333h5p3h5/6~-|
C|-00-------3-5---------6-3-5------------------------------333h5p3h5/6~-|
PM **                                                      ********* 

verses
D|--------------------------------------------------------|
A|--------------------------------------------------------|
F|------------------7-----------------------5-------------|
C|------------7-----------------------5-------------------|
G|----------5-----5-----5-7---5\3---3-----3-----3-5---3\1-|
C|-//xx\\-5-----5-----5-----5-----3-----3-----3-----3-----|
PM        * *   * *   * *   * *   * *   * *   * *   * * 

just before chorus
D|----------------------------------------------------------------|
A|----------------------------------------------------------------|
F|----------------------------------------------------------------|
C|---------------------33-22-33------------------------------555*-|
G|-----222-333----------------------555-222-333-----33-22-33------|
C|-000---------555-000----------000-------------000---------------|

Chorus
D|----------------------------------------------------------------------|
A|----------------------------------------------------------------------|
F|----------------------------------------------------------------------|
C|---------10101010-777-9-9-999-55555-------------555555\333333---------|
G|-7777-77-8-8-8-8--555-7-7-777-33333-11/3--5-3-5-333333\111111---------|
C|-7777-77----------------------------11/3--5-3-5-333333\111111-00-0-00-|
Tap to rate this tab
# A B C D E F G H I J K L M N O P Q R S T U V W X Y Z