Song name
# A B C D E F G H I J K L M N O P Q R S T U V W X Y Z

Washya - Acid Tears tab

-----------------------------------------------------------------------------
               Acid Tears - Washya
-----------------------------------------------------------------------------
Tuning: Drop D (DADGBE)
Intro
E|-----------------------------------------|
B|-----------------------------------------|
G|-----------------------------------------|
D|---------------3----------------------3*-|
A|-5------8-------------6-3------8---------|
D|---0000---0000---0000-----0000---0000----|x3
PM   ****   ****   ****     ****   **** 

Verses
E|--------------------------------------------10p7--------------------|
B|-------------------------------------------------10p7---------------|
G|------------------------------------------------------10p7----------|
D|------8------7------5------8b------10b---------------------10p9-----|
A|------5------5------5------7b-------9b--------------------------7~~-|
D|-0000---0000---0000---0000----0000-----0000-------------------------|
PM ****   ****   ****   ****    ****     **** 

Chorus
E|---------------------------------------------------------------------|
B|---------------------------------------------------------------------|
G|-55555/88888---------------------------------------10p7--------------|
D|-------------/9p8p6h9p8p6-/7p6p4h7p6p4------------------10p8p7-------|
A|-33333/66666---------------------------44444h6p4h7-------------777p4-|
D|---------------------------------------44444h6p4h7-------------777p4-|
PM                                       *****                   *** 

Solo
E|--------------/16p15-------------------------------------13h16p13h16p13~-|
B|---------------------16p13-------------------------16p13-----------------|
G|---------------------------16p15p13----------13h16-----------------------|
D|------------------------------------16p13p12-----------------------------|
A|-00000-------------------------------------------------------------------|
D|-00000-//xx\\------------------------------------------------------------|
PM ***** 

E|-----------------------------5-----------------|
B|--------11--------8--------5---5p3h5p3---------|
G|-/9p8h9----/6h7p6---/3p2h3-------------5p3h5~~-|
D|-----------------------------------------------|
A|-----------------------------------------------|
D|-----------------------------------------------|

E|-----------------------------13h15p13h15p13h15p13h16b-16~~-|
B|-----------------------11h13-------------------------------|
G|-----------------10h12-------------------------------------|
D|-----------10h12-------------------------------------------|
A|------9h11-------------------------------------------------|
D|-9h11------------------------------------------------------|
PM **** *********** 

E|-16t20p18p16t20p17-------------------------------------------|
B|-------------------18p17p15t20p18p15-------------------------|
G|-------------------------------------16p15p13t18p15t18p15p13-|
D|-------------------------------------------------------------|
A|-------------------------------------------------------------|
D|-------------------------------------------------------------|

E|-------------------------------------------------------------------------|
B|----------------------------------------16----16-------------------------|
G|----15p13----15p13h15----13h15----13h15----17----17p16p14----------------|
D|-16-------16----------16-------16-------------------------15p13p12-------|
A|-------------------------------------------------------------------14p12-|
D|-------------------------------------------------------------------------|

E|----------------------------------------------------|
B|----------------------------------------------------|
G|----------------------------------------------------|
D|-------------14p13p11-------11h12----11h12----------|
A|-14p12p11h12----------12h14-------14-------14~~~~\\-|
D|----------------------------------------------------|

Tuning: Drop D (DADGBE)
Intro
E|-----------------------------------------|
B|-----------------------------------------|
G|-----------------------------------------|
D|---------------3----------------------3*-|
A|-5------8-------------6-3------8---------|
D|---0000---0000---0000-----0000---0000----|x3
PM   ****   ****   ****     ****   **** 

Verses
E|--------------------------------------------10p7--------------------|
B|-------------------------------------------------10p7---------------|
G|------------------------------------------------------10p7----------|
D|------8------7------5------8b------10b---------------------10p9-----|
A|------5------5------5------7b-------9b--------------------------7~~-|
D|-0000---0000---0000---0000----0000-----0000-------------------------|
PM ****   ****   ****   ****    ****     **** 

Chorus
E|---------------------------------------------------------------------|
B|---------------------------------------------------------------------|
G|-55555/88888---------------------------------------10p7--------------|
D|-------------/9p8p6h9p8p6-/7p6p4h7p6p4------------------10p8p7-------|
A|-33333/66666---------------------------44444h6p4h7-------------777p4-|
D|---------------------------------------44444h6p4h7-------------777p4-|
PM                                       *****                   *** 
Tap to rate this tab
# A B C D E F G H I J K L M N O P Q R S T U V W X Y Z