Song name
# A B C D E F G H I J K L M N O P Q R S T U V W X Y Z

Washya - Tomorrow Is Gone tab

-----------------------------------------------------------------------------
                     Tomorrow Is Gone - Washya
-----------------------------------------------------------------------------
Tuning: Drop D (EBGDAD)
Intro
E|-------------------------------------------------------------|
B|-------------------------------------------------------------|
G|-------------------------------------------------------------|
D|---------------77777---------------55555---------------33333-|
A|-2h3-2h3-2h3-2-55555-2h3-2h3-2h3-2-33333-2h3-2h3-2h3-2-11111-|
D|-2h3-2h3-2h3-2-------2h3-2h3-2h3-2-------2h3-2h3-2h3-2-------|

E|-------------------------------------------------------------|
B|-------------------------------------------------------------|
G|-------------------------------------------------------------|
D|---------------77777---------------66666---------------55555-|
A|-2h3-2h3-2h3-2-55555-2h3-2h3-2h3-2-44444-2h3-2h3-2h3-2-33333-|
D|-2h3-2h3-2h3-2-------2h3-2h3-2h3-2-------2h3-2h3-2h3-2-------|x3

Verses
E|------------------------------------------|
B|----7----7----77----10----10----1010----5-|
G|----7----7----77----10----10----1010----5-|
D|----7----7----77----10----10----1010----5-|
A|-xx-5-xx-5-xx-55-xx----xx----xx------xx-3-|
D|-xx---xx---xx----xx----xx----xx------xx---|

Chorus
E|-----------------------------------------------------------------------|
B|-----------------------------------------------------------------------|
G|-5-5-2----22---------2-5-----------2----2-5----------2---------------2-|
D|-5-5-2----22---------2-5-----------2----2-5----------2---------------2-|
A|-3-3-0-xx-00-55-44-2-0-3-2/5-4-2-0-0-xx-0-3-2h4-5420-0-x-22222/55555-0-|
D|-------xx----55-44-2-----2/5-4-2-0---xx-----2h4-5420---x-22222/55555---|
PM                                                         ***********

interlude til end
E|-------------------------------------------------------------|
B|-------------------------------------------------------------|
G|-------------------------------------------------------------|
D|-------------------------------------------------------------|
A|-000-000-000-00320202-000-000-000-002323-000-000-000-0023230-|
D|-000-000-000-00320202-000-000-000-002323-000-000-000-0023230-|
PM *** *** ***          *** *** ***        *** *** *** 
Tap to rate this tab
# A B C D E F G H I J K L M N O P Q R S T U V W X Y Z