Song name
# A B C D E F G H I J K L M N O P Q R S T U V W X Y Z

Washya - Paid Protection tab

-----------------------------------------------------------------------------
                   Paid Protection - Washya
-----------------------------------------------------------------------------
Tuning: Standard (EBGDAE)
Intro
E|---------------------------------|
B|---------------------------------|
G|------4------4\3------4------4\3-|
D|------4------4\3------4------4\3-|
A|------2------2\1------2------2\1-|
E|-0000---0000-----0000---0000-----|x3
PM ****   ****     ****   ****   

Verses
E|-----------------------------------------------|
B|-----------------------------------------------|
G|-------4/5---4/5----4\3-------4/5---4/5----3-2-|
D|-------4/5---4/5----4\3-------4/5---4/5----3-2-|
A|-------2/3---2/3----2\1-------2/3---2/3----1-0-|
E|-00000-----0-----00-----00000-----0-----00-----|
PM *****     *     **     *****     *     **  

Chorus
E|------------------------------------------|
B|------------------------------------------|
G|------4----------4----------4-3-2---------|
D|------4-4-2------4-4/7------4-3-2-6-5-3-2-|
A|------2-4-2------2-4/7------2-1-0-6-5-3-2-|
E|-0000---2-0-0000---2/5-0000-------4-3-1-0-|
PM ****       ****       ****      

Lead
E|-------------------------------------------------------------------4~-|
B|-------------------------------------------------2-0-----3-2---3-2----|
G|---------------------------------4-2---2-0---4-3-----2-4-----4--------|
D|-------2-0---4-2-0---2-0-4-2-0-2-----4-----2--------------------------|
A|-0-2-4-----4-------4--------------------------------------------------|
E|----------------------------------------------------------------------|

E|----7h10---7h10---7h10---10---7h10p7h10p7h10p8p7---------------|
B|-/8------8------8------8----8--------------------10p8p7h10p8p7-|
G|---------------------------------------------------------------|
D|---------------------------------------------------------------|
A|---------------------------------------------------------------|
E|---------------------------------------------------------------|

E|------7------------------------------------------------------------------|
B|-10p8---8h10p8p7----8p7--------10----------------------------------------|
G|-----------------10-----10p8p7----8p7h10p8p7----8p7h10p8-----------------|
D|---------------------------------------------10----------7h10p8----------|
A|----------------------------------------------------------------7h10p8p7-|
E|-------------------------------------------------------------------------|

E|------------------------------------------------------------|
B|------------------------------------------------------------|
G|------------------------------------------------------------|
D|------7--------7------7h8p7---------------------------------|
A|-10p8---8h10p8---10p8-------10p8p7h10p8p7----8p7------------|
E|------------------------------------------10-----10p8p7~~\\-|

Tuning: Standard (EBGDAE)
Intro
E|---------------------------------|
B|---------------------------------|
G|------4------4\3------4------4\3-|
D|------4------4\3------4------4\3-|
A|------2------2\1------2------2\1-|
E|-0000---0000-----0000---0000-----|x3
PM ****   ****     ****   ****   

Verses
E|-----------------------------------------------|
B|-----------------------------------------------|
G|-------4/5---4/5----4\3-------4/5---4/5----3-2-|
D|-------4/5---4/5----4\3-------4/5---4/5----3-2-|
A|-------2/3---2/3----2\1-------2/3---2/3----1-0-|
E|-00000-----0-----00-----00000-----0-----00-----|
PM *****     *     **     *****     *     **  

Chorus
E|------------------------------------------|
B|------------------------------------------|
G|------4----------4----------4-3-2---------|
D|------4-4-2------4-4/7------4-3-2-6-5-3-2-|
A|------2-4-2------2-4/7------2-1-0-6-5-3-2-|
E|-0000---2-0-0000---2/5-0000-------4-3-1-0-|
PM ****       ****       **** 
Tap to rate this tab
# A B C D E F G H I J K L M N O P Q R S T U V W X Y Z