Song name
# A B C D E F G H I J K L M N O P Q R S T U V W X Y Z

Washya - Forever Awake tab

-----------------------------------------------------------------------------
                      Forever Awake - Washya
-----------------------------------------------------------------------------
Tuning: Standard (EBGDAE)
Intro/Verses
E|-------10-----------10-----------10----------8-----------8-----------8----|
B|-12-------12--12-------12--12-------12\10------10--10------10--10------10-|
G|----12-----------12-----------12----------10----------10----------10------|
D|--------------------------------------------------------------------------|
A|--------------------------------------------------------------------------|
E|--------------------------------------------------------------------------|

E|--------6--------6--------6---------------|
B|-10\8-----8--8-----8--8-----8--8-6-5------|
G|------8--------8--------8------------8-7~-|
D|------------------------------------------|
A|------------------------------------------|
E|------------------------------------------|x2 

Chorus
E|-----------------------------------|
B|-----------------------------------|
G|-222-------------222---------777\\-|
D|-222-555-222-333-222-555-222-777\\-|
A|-000-555-222-333-000-555-222-555\\-|
E|-----333-000-111-----333-000-------|

Solo
E|---------------------------------------12h13p12~-12h15p13p12h15p13p12-----|
B|----7h8p7----------------10-10bp9~-----12-----------------------------14~-|
G|-9b-------9b-9b~-----7h8-----------/10------------------------------------|
D|-----------------/9b------------------------------------------------------|
A|--------------------------------------------------------------------------|
E|--------------------------------------------------------------------------|
Tap to rate this tab
 
# A B C D E F G H I J K L M N O P Q R S T U V W X Y Z