Song name
# A B C D E F G H I J K L M N O P Q R S T U V W X Y Z

Washya - Welcome To The High Country tab

-----------------------------------------------------------------------------
       Welcome To The High Country (Instrumental) - Washya
-----------------------------------------------------------------------------
Tuning: Standard (EBGDAE)
Intro
E|---<5>-----------3h5p3p2---<12>-----------10h12p10p9-|
B|-----------<5>---0-0-0-0-------------<12>-00-00-00-0-|
G|-------<5>----------------------<12>-----------------|
D|-----------------------------------------------------|
A|-----------------------------------------------------|
E|-0-------------0---------0---------------------------|x2

Verses 
E|-------------------------------------------------------------------|
B|-------------------------------------------------------------------|
G|-------0---------0-------------0-------------0-------------0-------|
D|-----4---4-----6---6---------5---5---------3---3---------4-------2-|
A|---2-------2/4-------4---4\3-------3---3\1-------1---1/2-------2---|
E|-0---------------------0-------------0-------------0---------0-----|

Chorus
E|--------------------------------------------------------------|
B|--------------------------------------------------------------|
G|------------------3/4-------------------------------------3---|
D|----7/8----7/8----3/4-/3h5p3-----------5----7/8----4/5----3-2-|
A|----7/8----7/8----1/2--------6p5p3-----5----7/8----4/5----1-2-|
E|-00-5/6-00-5/6-00------------------5p4p3-00-5/6-00-2/3-00---0-|
Tap to rate this tab
# A B C D E F G H I J K L M N O P Q R S T U V W X Y Z