Song name
# A B C D E F G H I J K L M N O P Q R S T U V W X Y Z

Washya - Love In Fashion tab

-----------------------------------------------------------------------------
                   Love Of Fashion - Washya
-----------------------------------------------------------------------------
Tuning: Standard (EBGDAE)
Intro/Verses
E|---------------------------------------------------------------------|
B|-5-5-------------5-5-------------7-7-------------7-7-------------9-9-|
G|-5-5-------------5-5-------------7-7-------------7-7-------------9-9-|
D|-5-5-3h5p3-------5-5-3h5p3-------7-7-5h7p5-------7-7-5h7p5-------9-9-|
A|-3-3-------5p3h5-3-3-------5p3h5-5-5-------7p5h7-5-5-------7p5h7-7-7-|
E|---------------------------------------------------------------------|

E|-----------------------------|
B|-------------9-9-------------|
G|-------------9-9-------------|
D|-7h9p7-------9-9-7h9p7-------|
A|-------9p7h9-7-7-------9p7h9-|
E|-----------------------------|

Chorus
E|-----------------------------------------------------------|
B|-----------------------------------------------------------|
G|-77-5---------------99-7---------------55-3-------------22-|
D|-77-5---------------99-7---------------55-3-------1-----22-|
A|-55-3---2---4bp2-2~-77-5---4---6bp4-4~-33-1---1-3-------00-|
E|------4---4--------------6---6--------------3-------1h3----|
PM      * * *              * * *              * * * * *** 
Tap to rate this tab
 
# A B C D E F G H I J K L M N O P Q R S T U V W X Y Z