Song name
# A B C D E F G H I J K L M N O P Q R S T U V W X Y Z

Washya - Seasons Change tab

-----------------------------------------------------------------------------
                     Seasons Change - Washya
-----------------------------------------------------------------------------
Tuning: Standard (EBGDAE)
Intro                                    
E|-----2---------2----------------------------------20-------2020---|
B|-------3-------3-2-------/6\5-6\5-2-----3---------33-------3333-2-|
G|---------------2-2--------5\4-5\4-2-------2-------22-------2222-2-|
D|-000-------000---0---000----------0-----------------------------0-|
A|------------------------------------000-------000------000--------|
E|---------3---------2------------------------3--------2------------|
PM ***     * ***     * ***            ***     * ***    * *** 

Chorus             D, A, G.
E|-222-22-000-00--------333-33-0---0---3-----|
B|-333-33-333-33-222-22-333-33---3---3-------|
G|-222-22-222-22-222-22-000-00---------------|
D|---------------000-00-000-00---------------|
A|----------------------222-22-----------2---|
E|----------------------333-33-------------3-|
Tap to rate this tab
# A B C D E F G H I J K L M N O P Q R S T U V W X Y Z