Song name
# A B C D E F G H I J K L M N O P Q R S T U V W X Y Z

Washya - Wound And Bound tab

-----------------------------------------------------------------------------
                             Wound and Bound - Washya
-----------------------------------------------------------------------------
Tuning: Drop D (DADGBE)
Intro
E|---------------------------------------------------------|
B|---------------------------------------------------------|
G|------9\8-8\7-7\6-6\4------9\8-8/9-9/11------------------|
D|------9\8-8\7-7\6-6\4------9\8-8/9-9/11------5h7-3h5-1-0-|
A|------7\6-6\5-5\4-4\2------7\6-6/7-7/9-------5h7-3h5-1-0-|
D|-0000-----------------0000--------------0000-5h7-3h5-1-0-|
PM ****                 ****              **** 

Verses
E|---------------------------------------------------------------|
B|---------------------------------------------------------------|
G|--------------------------------3333-33-33-3-333-33-3-333-3333-|
D|-5555-55-55-5-555-55-5-555-5555-3333-33-33-3-333-33-3-333-3333-|
A|-5555-55-55-5-555-55-5-555-5555-1111-11-11-1-111-11-1-111-1111-|
D|-5555-55-55-5-555-55-5-555-5555--------------------------------|
PM ***  *  ** *  ** *  *  ** **   **   *  ** *  ** *    **  **   

Chorus
E|-----------------------------------|
B|-----------------------------------|
G|-----------------------------------|
D|-----------------------------------|
A|-0-8p7p0-1h3/6\\-0-6p5p0-1h3h4/7\\-|
D|-0-8p7p0-1h3/6\\-0-6p5p0-1h3h4/7\\-|

Heavy Interlude
E|-------------------------------------|
B|-------------------------------------|
G|-------------------------------------|
D|-------------------------------------|
A|-------------------------------------|
D|-0-8p7p0-1-1h3/6\\-0-6p5p0-1h3h4/7\\-|
PM * ***** * *** *   * ***** ***** * 
Tap to rate this tab
# A B C D E F G H I J K L M N O P Q R S T U V W X Y Z