Song name
# A B C D E F G H I J K L M N O P Q R S T U V W X Y Z

Washya - Paradise Island tab

-----------------------------------------------------------------------------
                            Paradise Island - Washya
-----------------------------------------------------------------------------
Tuning: Standard (EBGDAE)
Intro           D
E|---3-------3p2p0-2-3p2---------2-233-|
B|-------3---------3-------3p0-3---333-|
G|-----2---2-------2-----2---------222-|
D|-------------------------------------|
A|-------------------------------------|
E|-0-----------------------------------|x2

Verse 1

 D,         A,         E.
I once lived in the city
 D,         A,         E.
Where the lights were shining bright
 D,         A,         E.
I once lived in the city
 D,         A,         E.
Where I am always up for the fight

Chorus

D,           G,       Am,        Em
I would rather live on a Paradise Island
D,           G,       Am,        Em
And do as I please among the coconut trees
D,           G,       Am,        Em
Paradise Island take me home again
D,    Am,   D,   Am
Home again, Home Again
D,    G,    Am,   Em
Living wild and living free
D,    G,    Am,   Em
This is my destiny


Verse 2
D,     A,        E,        A,
I'm going someplace and I don't know where
D,     A,        Bm,
But I sure as hell don't care
D,     A,        C,       G,      Bm
I've lived in pain and I've lived on the edge
D,     E,        Em,      G
But I have too fight to the end
G,     Em,       C,         D,        G,       Em.
A little slice of paradise is exactly what I need


 Chorus

D,           G,       Am,        Em
I would rather live on a Paradise Island
D,           G,       Am,        Em
And do as I please among the coconut trees
D,           G,       Am,        Em
Paradise Island take me home again
D,    Am,   D,   Am
Home again, Home Again
D,    G,    Am,   Em
Living wild and living free
D,    G,    Am,   Em
This is my destiny

-----------------------------------------------------------------------------
Lead solo
E|-----------------------------------------------------------------|
B|-----------------------------------------------------------------|
G|--9-99-99-9-10-9-7-9---7-77-7-9-7---7bp5-------------------------|
D|---------------------9------------9------5h77-5-7---5-7/9-5h7-7~-|
A|--------------------------------------------------7--------------|
E|-----------------------------------------------------------------|
Tap to rate this tab
 
# A B C D E F G H I J K L M N O P Q R S T U V W X Y Z