Song name
# A B C D E F G H I J K L M N O P Q R S T U V W X Y Z

Washya - Acid Reign tab

-----------------------------------------------------------------------------
                     Acid Reign - Washya
-----------------------------------------------------------------------------
Tuning: Drop D (DADGBE)
Intro
E|---------------------------------------------------------|
B|---------------------------------------------------------|
G|---------------------------------------------------------|
D|------3---6---4---7\\------5---8---6---9\\-------------3-|
A|------1---4---2---5\\------3---6---4---7\\-----6---3---1-|
D|-0-00---0---0---0-----0-00---0---0---0-----000-6-0-3-0---|
PM * **   *   *   *     * **   *   *   *     ***   *   * 

Verses
E|-------------------------------------------------------|
B|-------------------------------------------------------|
G|-------------------------------------------------------|
D|-------------------------------------------------------|
A|--------------6---3---5*--------------6---1---3*-1/2/3-|
D|-000000000000---0---0----000000000000---0---0----1/2/3-|
PM ************   *   *    ************   *   * 

Fill
E|-----------------------------------|
B|-----------------------------------|
G|-/5t10p8p5t10p8p5t10p8p5t10p8p5~\\-|
D|-----------------------------------|
A|-----------------------------------|
D|-----------------------------------|

Chorus
E|-------------------------------------------------------------------|
B|-------------------------------------------------------------------|
G|-------------------------------------------------------------------|
D|--------------------------------6--------------------------------3-|
A|-000-3p2p0-000-3p2p0-3---6----------5---3*-----6\5-----6\5---5---1-|
D|-000-------000-------3-x-6-6666---0---0----000-6\5-000-6\5-x-5-x---|
PM ***       ***             ****   *   *    *** 
Tap to rate this tab
# A B C D E F G H I J K L M N O P Q R S T U V W X Y Z