Song name
# A B C D E F G H I J K L M N O P Q R S T U V W X Y Z

Washya - Thru The Depths Of Time tab

-----------------------------------------------------------------------------
                           Thru The Depths Of Time - Washya
-----------------------------------------------------------------------------
Tuning: Standard (EBGDAE) 
Intro (Rhythm) (also during solo)
E|-----------------------------|
B|-----------------------------|
G|-----------------------------|
D|---------------------3-------|
A|-222-22--222-22--222-1-4-3-2-|
E|-000-00--000-00--000---2-1-0-|x3
PM                     * * * 

Intro (Lead)
E|------------------------------------10bp7---------------|
B|------------------------------------10b---10-7----------|
G|-/9-99p5h6~-/12p9----/12p11---11h12------------10p8p7\\-|
D|------------------11--------9---------------------------|
A|--------------------------------------------------------|
E|--------------------------------------------------------|

Verses (Rhythm)
E|---------------------------------------------------------------|
B|---------------------------------------------------------------|
G|---------------------------------------------------------------|
D|-----------------------3-------4-----------------------3-------|
A|-2-2-2-3-2-2-2-4-2-2-2-1-2-2-2-2-2-2-2-3-2-2-2-4-2-2-2-1-4-3-2-|
E|-0-0-0-1-0-0-0-2-0-0-0---0-0-0---0-0-0-1-0-0-0-2-0-0-0---2-1-0-|
PM * * *   * * *   * * *   * * *   * * *   * * *   * * * * * * 

Verses (Lead) (lead breaks)
E|------------------------------------------------------------------------|
B|------------------------------------------------------------------------|
G|-/1111p9----11/14p12----14p12------10p9p7-------10/12-14p12-12\11-------|
D|---------11----------14-------9h11--------9h11--------------------9/11~-|
A|------------------------------------------------------------------------|
E|------------------------------------------------------------------------|

Chorus (Rhythm)
E|-----------------------------------------------------------------|
B|-----------------------------------------------------------------|
G|-----------------------------------------------------------------|
D|---3---4\3-------1-2p1---------------------3---------------------|
A|-2-1-3-2\1-2-1h3-------1h2h3-5----5----5-2-1-3/5\3/5----5----5-2-|
E|-0---1-----0-----------------3-33-3-33-3-0---1/3\1/3-33-3-33-3-0-|
PM             *** * *** *****   **   **               **   **   

Chorus (Lead)
E|---------12h14p12\10p9h10p9\7h9p7\6---------------------------------------|
B|---------12-------------------------7-------------------------------------|
G|-/14~-14------------------------------8h9p8p6------66h8------------6---3~-|
D|----------------------------------------------55h7------55---7p5----------|
A|-----------------------------------------------------------7----/7--------|
E|--------------------------------------------------------------------/5----|
PM                                              **   **   **  

Lead (Solo)
E|--12b-----------------------------------------------------------------|
B|-/13b-13b-12h14-h15-15-15----12----12h14p12-------12h15p12------------|
G|--------------------------14----14----------15p14----------15p14p12~--|
D|----------------------------------------------------------------------|
A|----------------------------------------------------------------------|
E|----------------------------------------------------------------------|

E|-----------------------------------------------------------------12----15-|
B|--------------------------------------------------12p11----11h13----13----|
G|-------------9h11----9h11-------11h13p11----11h13-------12----------------|
D|-----9h11p10------10------10/12----------12-------------------------------|
A|-/10----------------------------------------------------------------------|
E|--------------------------------------------------------------------------|
PM  ** ******* 

E|-/15p12----12h15p12----12h15p12----13h16p13h16p13----13h16p13----13-|
B|--------14----------14----------14----------------13----------13----|
G|--------------------------------------------------------------------|
D|--------------------------------------------------------------------|
A|--------------------------------------------------------------------|
E|--------------------------------------------------------------------|

E|----14h17p14----14h17p14p17p14----14h17p14----------------------18-18-18~-|
B|-15----------15----------------15----------15----15p14----15p14-16-16-16~-|
G|----------------------------------------------16-------16-----------------|
D|--------------------------------------------------------------------------|
A|--------------------------------------------------------------------------|
E|--------------------------------------------------------------------------|

Tuning: Standard (EBGDAE) 
Intro (Rhythm) (also during solo)
E|-----------------------------|
B|-----------------------------|
G|-----------------------------|
D|---------------------3-------|
A|-222-22--222-22--222-1-4-3-2-|
E|-000-00--000-00--000---2-1-0-|x3
PM                     * * * 

Intro (Lead)
E|------------------------------------10bp7---------------|
B|------------------------------------10b---10-7----------|
G|-/9-99p5h6~-/12p9----/12p11---11h12------------10p8p7\\-|
D|------------------11--------9---------------------------|
A|--------------------------------------------------------|
E|--------------------------------------------------------|

Verses (Rhythm)
E|---------------------------------------------------------------|
B|---------------------------------------------------------------|
G|---------------------------------------------------------------|
D|-----------------------3-------4-----------------------3-------|
A|-2-2-2-3-2-2-2-4-2-2-2-1-2-2-2-2-2-2-2-3-2-2-2-4-2-2-2-1-4-3-2-|
E|-0-0-0-1-0-0-0-2-0-0-0---0-0-0---0-0-0-1-0-0-0-2-0-0-0---2-1-0-|
PM * * *   * * *   * * *   * * *   * * *   * * *   * * * * * * 

Verses (Lead) (lead breaks)
E|------------------------------------------------------------------------|
B|------------------------------------------------------------------------|
G|-/1111p9----11/14p12----14p12------10p9p7-------10/12-14p12-12\11-------|
D|---------11----------14-------9h11--------9h11--------------------9/11~-|
A|------------------------------------------------------------------------|
E|------------------------------------------------------------------------|

Chorus (Rhythm)
E|-----------------------------------------------------------------|
B|-----------------------------------------------------------------|
G|-----------------------------------------------------------------|
D|---3---4\3-------1-2p1---------------------3---------------------|
A|-2-1-3-2\1-2-1h3-------1h2h3-5----5----5-2-1-3/5\3/5----5----5-2-|
E|-0---1-----0-----------------3-33-3-33-3-0---1/3\1/3-33-3-33-3-0-|
PM             *** * *** *****   **   **               **   **   

Chorus (Lead)
E|---------12h14p12\10p9h10p9\7h9p7\6---------------------------------------|
B|---------12-------------------------7-------------------------------------|
G|-/14~-14------------------------------8h9p8p6------66h8------------6---3~-|
D|----------------------------------------------55h7------55---7p5----------|
A|-----------------------------------------------------------7----/7--------|
E|--------------------------------------------------------------------/5----|
PM                                              **   **   **  
Tap to rate this tab
# A B C D E F G H I J K L M N O P Q R S T U V W X Y Z