Song name
# A B C D E F G H I J K L M N O P Q R S T U V W X Y Z

Washya - Black Ink Poisoning tab

-----------------------------------------------------------------------------
                      Black Ink Poisoning - Washya
-----------------------------------------------------------------------------
Tuning: Drop D (DADGBE)
Intro
E|------------------|
B|------------------|
G|------------------|
D|------------------|
A|------2-5-2-5/8\\-|
D|-12\\-2-5-2-5/8\\-|x2

Part 2 
E|---------------------------------------|
B|---------------------------------------|
G|---------------------------------------|
D|---------------------------------------|
A|-22222-22-222222-5-55555-55-555555-8\\-|
D|-22222-22-222222-5-55555-55-555555-8\\-|

Verses (palm mute 2nd, 4th.)
E|---------------------------------------|
B|---------------------------------------|
G|---------------------------------------|
D|---------------------------------------|
A|-22222-22-222222-5-55555-55-555555-8\\-|
D|-22222-22-222222-5-55555-55-555555-8\\-|
PM ***** ** ****** * ***** ** ****** 

Chorus
E|-----------------------------------------------------------|
B|-----------------------------------------------------------|
G|-----------------------------------------------------------|
D|-----------------------------------------------------------|
A|-2222222222222/555555555555555/8888888888888\5h7h8-5h7h8\\-|
D|-2222222222222/555555555555555/8888888888888\5h7h8-5h7h8\\-|

E|------------------------------------------------------------|
B|------------------------------------------------------------|
G|------------------------------------------------------------|
D|------------------------------------------------------------|
A|-222222222222/555555555555555/88888888888888\5h7h8-7h8h10\\-|
D|-222222222222/555555555555555/88888888888888\5h7h8-7h8h10\\-|

Solo
E|-----------------------------------------------------11----11-13----11h13~|
B|-------------------------------------------/12b-10\\----12-------12-------|
G|-/2~-/5~-/2-5-8~--------8b-6---6---10b-10b--------------------------------|
D|-----------------66~-6b------8---8----------------------------------------|
A|--------------------------------------------------------------------------|
D|--------------------------------------------------------------------------|
Tap to rate this tab
# A B C D E F G H I J K L M N O P Q R S T U V W X Y Z