Song name
# A B C D E F G H I J K L M N O P Q R S T U V W X Y Z

Washya - Pooling War tab

-----------------------------------------------------------------------------
                             Pooling War - Washya
-----------------------------------------------------------------------------
Tuning: Drop D (DADGBE)
Intro/Verses
E|----------------------------------------------------------------------|
B|----------------------------------------------------------------------|
G|----------------------------------------------------------------------|
D|---2p3h2-------0-------3/5\2-------0-----3----2---3---7\5-------5p3---|
A|-----------2h3---3/5-----------2h3---2h3--------------------5h7-------|
D|-0-------0-----------0-------0-------------00---0---0-----0---------0-|

E|-------------------------------------------------------------------------|
B|-------------------------------------------------------------------------|
G|-3-----------------------------------------------------------------------|
D|-----0---2h3p2-------0-3----------3\2------------3p2p0-------5\4---------|
A|-----------------2/5-------5/7-----------3---2-----------7---------5p4p0-|
D|---0---0-------0---------0------0-----00---0---0-------0---0-----0-------|

E|-----------------------------------------------------------------------|
B|-----------------------------------------------------------------------|
G|-----------------------------------------------------------------------|
D|-------3-----0-----------------------3---2---/5\-------------0---------|
A|---3h5---2h3-----7\4---7---4h5---2-----------------8p7---3h5-----7h8p5-|
D|-0-------------0-----0---0-----0---0---0---0-----0-----0-------0-------|

E|-------------------------------------------------------------------|
B|-------------------------------------------------------------------|
G|-------------------------------------------------------------------|
D|-----------5---4-----------7-----------------------0-------2p0---2-|
A|---2---3-----------7---5p4-----2h3p2---2---5---5\4-----2h3-----2-2-|
D|-0---0---0---0---0---0-------0-------0---0---0-------0-----------2-|

Heavy Now (Chorus)
E|----------------------------------------------------------------------|
B|----------------------------------------------------------------------|
G|----------10---8---7----------8---3---5-------------------------------|
D|----------10---8---7----------8---3---5-------------------------------|
A|----------8----6---5----------6---1---3----------5/6-5/6----------5/6-|
D|-00000000----0---0---00000000---0---0---00000000-5/6-5/6-00000000-5/6-|
PM ********    *   *   ********   *   *   ********         ********

E|---------------------------------------------------|
B|---------------------------------------------------|
G|------------------10---8---7----------7/8-7/8-3/5~-|
D|------------------10---8---7----------7/8-7/8-3/5~-|
A|-5/6---3----------8----6---5----------5/6-5/6-1/3~-|
D|-5/6-0-3-00000000----0---0---00000000--------------|
PM     *   ********    *   *   ******** 
Tap to rate this tab
 
# A B C D E F G H I J K L M N O P Q R S T U V W X Y Z